» » »

Killing Time Bass tabs (ver.1)

Artists:  A B C D E F G H I J K L M N O P Q R S T U V W X Y Z # 

Killing Time Bass tabs (ver.1)

4ft Fingers
Rating:
5/5 (1 vote)

Hard to play? Try these video lessons and learn fast.
                All credit to Russ Carlin.

Chorus
|---------------------------------------------------|
|---------------------------------------------------|
|--------------4-5-5-5-5-5-5-5-5-7-7-7-2-3-3-3-3-3--|
|-3-3-3-3-3-----------------------------------------|

Fill
|----------|
|----------|
|----3/7---|
|----------|

Verse
|---4-7-4-5-2-4-0-------------------------|
|-5--------------------2-5-2----4-7-4-----|
|--------------------3---------5----------|
|-----------------------------------------|

|---4-7-4-5-2-4-0------------/7-5-4---------|
|-5--------------------2-5-2---------7------|
|--------------------3----------------------|
|-------------------------------------------|

End
|--------------------------------|
|--------------------------------|
|--------------------------------|
|--3---------------3-3-3--3-33---|
            
Hard to play? Try these video lessons and learn fast. | Correct




comments powered by Disqus
↑ Back to top | Tablatures and chords are parodies/interpretations of the original songs. You may use it for private study, scholarship, research or language learning purposes only