» » »

Trial Of Champions Tabs (ver.1)

Artists:  A B C D E F G H I J K L M N O P Q R S T U V W X Y Z # 

Trial Of Champions Tabs (ver.1)

3 Inches Of Blood
Rating:
0/5 (0 votes)

Tabs too difficult? Try these video lessons and learn fast.
                			    3 inches of Blood - Trial of Champions (solo)

Tuning: Standard

e|-----------------------------------------------------------------------15--|
B|----17p14-----17p14----17p14---17p14----17p14-----17p14----17p14-----------|
G|----------14-------14-------14-------14-------14--------14------14---------|
D|-------------------------------------------------------------------16b-----|
A|---------------------------------------------------------------------------|
E|---------------------------------------------------------------------------|

e|---------------------------------------------------------------------------|
B|--------15-----------------------------------------------------------------|
G|--15-17----17-15-----------15----------15----------------------------------|
D|------------------17-15-17----17-15-17----17-15----------------------------|
A|---------------------------------------------------------------------------|
E|---------------------------------------------------------------------------|

e|-------------------------------------------------------------------------------|
B|---17--(X12)---------------20b-------------------------------------------------|
G|---20--------------------------------------------------------------------------|
D|-----------17b--15h17p15-------------------------------------------------------|
A|-------------------------------------------------------------------------------|
E|-------------------------------------------------------------------------------|
Tremelo pick
e|-12-11-10-9-15-14-13-12-(X3)--------------------------------------------------|
B|------------------------------------------------------------------------------|
G|------------------------------------------------------------------------------|
D|------------------------------------------------------------------------------|
A|------------------------------------------------------------------------------|
E|------------------------------------------------------------------------------|
Now you just play the second part and you're done hope you enjoyed it
 3IOB for life

| /  slide up
| \  slide down
| h  hammer-on
| p  pull-off
| ~  vibrato
| +  harmonic
| x  Mute note
| b bend string
            
Tabs too difficult? Try these video lessons and learn fast.


comments powered by Disqus
↑ Back to top | Tablatures and chords are parodies/interpretations of the original songs. You may use it for private study, scholarship, research or language learning purposes only