» » »

3 Inches Of Blood, Trial Of Champions Tabs (ver.3)

Artists:  A B C D E F G H I J K L M N O P Q R S T U V W X Y Z # 

Trial Of Champions Tabs (ver.3)

3 Inches Of Blood Tabs
Rating:
0/5 (0 votes)
Trial Of Champions lessons Tabs too difficult? Try these video lessons and learn fast
                
Tuning: Standard

INTRO
e|-------------------------------------|
B|-------------------------------------|
G|-------------------------------------|
D|-----5-3----3---3-------5-3----3-5-5-|
A|-5-------5----3-1-3-5-------5----3-1-|
E|-3-3--------------1-3-3--------------|

e|------------------------------------------|
B|------------------------------------------|
G|-----------------2--------------------3-5-|
D|-----5-3---3---3-0--------------------1-3-|
A|-5-------5---3-1---3-3-1--------1---1-----|
E|-3-3---------------------3--3-3---3-------|

VERSE
e|-------------------------------------------------------------|
B|-------------------------------------------------------------|
G|-------------------------------------------------------------|
D|-5--5-5-5-5-5-5-5-5-5-5-3-3-3-5--5-5-5-5-5-5-5-1-------------|
A|-3--3-3-3-3-3-3-3-3-3-3-1-1-1-3--3-3-3-3-3-3-3---3-1---1-3-1-|
E|-----------------------------------------------------3-------|

e|-----------------------------------------------------|
B|-----------------------------------------------------|
G|-----------------------------------------------------|
D|-------------------------------------------------3---|
A|-------------------------6-----------------------1-3-|
E|/3--3-3-6p3-3-3-6p3-3/6-----/3--3-3-6p3-3-3-6p3-3--1-|

e|-------------------------------------------------------------|
B|-------------------------------------------------------------|
G|-------------------------------------------------------------|
D|-5--5-5-5-5-5-5-5-5-5-5-3-3-3-5--5-5-5-5-5-5-5-1-------------|
A|-3--3-3-3-3-3-3-3-3-3-3-1-1-1-3--3-3-3-3-3-3-3---3-1---1-3-1-|
E|-----------------------------------------------------3-------|

e|--------------------------------------------------------|
B|--------------------------------------------------------|
G|--------------------------------------------------------|
D|--------------------------------------------------------|
A|-------------------------6------------------------------|
E|/3--3-3-6p3-3-3-6p3-3/6-----/3--3-3-6p3-3-3-6p3-3-3/6-1-|

e|----------------------------------------------------------|
B|----------------------------------------------------------|
G|----------------------------------------------------------|
D|-------------------------6---------------------5-3--------|
A|---------------------------------------------------5-3-1--|
E|/3--3-3-6p3-3-3-6p3-3/6-----/3--3-3-6p3-3-3-6p3-----------|

PRE-CHORUS
e|-------------------|
B|-------------------|
G|-----3-------3--5--|
D|-5---1---5---1--3--|
A|-3-------3---------|
E|-------------------|

CHORUS
e|-------------------------|
B|-------------------------|
G|-----------------3-------|
D|---------3-------1-------|
A|-5-------1-----------5---|
E|-3-------------------3---|

BRIDGE
e|---------------------------------------------|
B|---------------------------------------------|
G|---------------------------------------------|
D|-------------------3-------------------------|
A|-5--8p5--3h5---3-5---5-3-------3-------3-----|
E|-------------------------5-3-5---5-3-5---5-3-|


| /  slide up
| \  slide down
| h  hammer-on
| p  pull-off
| ~  vibrato
| +  harmonic
| x  Mute note
            

comments powered by Disqus
↑ Back to top | 3 Inches Of Blood Tabs for Trial Of Champions. Lyrics for acoustic guitar and electric guitar. Tablatures and chords are parodies/interpretations of the original songs. You may use it for private study, scholarship, research or language learning purposes only