» » »

3 Inches Of Blood, Trial Of Champions Tabs (ver.2)

Artists:  A B C D E F G H I J K L M N O P Q R S T U V W X Y Z # 

Trial Of Champions Tabs (ver.2)

3 Inches Of Blood Tabs
Rating:
0/5 (0 votes)
Trial Of Champions lessons Tabs too difficult? Try these video lessons and learn fast
                (Intro)
e[--------------------------------------------------------------------]lead.
b[--------------------------------------------------------------------]
g[--------------------------------------------------------------------]
d[----5-5p3-5-3-5-3-----5-5p3-5-5-3------5-5p3-5-3-5-7----------------]
a[-5------------3-1--5----------3-1----5-----------3-5--3-3-1---------]
E[-3-----------------3-----------------3----------------------3-------]

e[--------------------------------------------------------------------]
b[--------------------------------------------------------------------]
g[--------------------------------------------------------------------]
d[--------------------------------------------------------------------]
a[--------------------------------------------------------------------]
E[-1-1-3-1-3-6-8------------------------------------------------------]

e[--------------------------------------------------------------------]rythm.
b[--------------------------------------------------------------------]
g[--------------------------------------------------------------------]
d[--------------------------------------------------------------------]
a[-5------------5-3--5-----------------5\\\\\\\\\\\\\\3---------------]
E[-3------------3-1--3-----------------3\\\\\\\\\\\\\\1---------------]

e[--------------------------------------------------------------------]
b[--------------------------------------------------------------------]
g[--------------------------------------------------------------------]
d[--------------------------------------------------------------------]
a[--------------------------------------------------------------------]
E[-1-1-3-1-3-6-8------------------------------------------------------]

!
that's all i know for now sorry :(  long live 3IOB!\m/
            

comments powered by Disqus
↑ Back to top | 3 Inches Of Blood Tabs for Trial Of Champions. Lyrics for acoustic guitar and electric guitar. Tablatures and chords are parodies/interpretations of the original songs. You may use it for private study, scholarship, research or language learning purposes only