>
 >
Revenge Is A Vulture

Revenge Is A Vulture Guitar Tabs

3 Inches Of Blood - Revenge Is A Vulture chords, tabs, tablatures, lyrics

Guitar lessons | Add/correct | Request | Top 50 tabs Artists:  A B C D E F G H I J K L M N O P Q R S T U V W X Y Z 0-9

Revenge Is A Vulture Guitar Tabs – 3 Inches Of Blood

CD, Sheet music, Poster

Do you like Revenge Is A Vulture? Share with your friends now
Bass TabsTabs
Intro:
Guitar 1:
E--------------------------------------|
B--------------------------------------|
G--------------------------------------|
D--------------------------------------|
A--------------------------------------|
E--7----5-7-9---5-3----3^(half bend)---|

E--------------------------------|
B--------------------------------|
G--------------------------------|
D--------------------------------|
A------------------------5-4-----|
E--7----5-7-9---5-3----5-----5---|

Guitar 2:
E--------------------------------------|
B--------------------------------------|
G--------------------------------------|
D--------------------------------------|
A--5----4-5-7---0-2----2^(whole bend)--|
E--------------------------------------|

E--------------------------------|
B--------------------------------|
G--------------------------------|
D--------------------------------|
A--5----4-5-7---0-2----5-9-7-0---|
E--------------------------------|

       |-3-|   |-3-|   |-3-|   |-3------------------|
E---------------------------------------------------|
B---------------------------------------------------|
G---------------------------------------------------|
D--4---------------4---------------4---7---7-7------|
A--2---2-2-2---2-2-2---2-2-2---2-2-2-0-5-0-4-4-0----|
E---------------------------------------------------|
       * * *   * *     * * *   * *   *   *     *

       |-3-|   |-3-|  |-3-|  |-3--------------------|
E---------------------------------------------------|
B---------------------------------------------------|
G---------------------------------------------------|
D--4---------------4---------------4-------2-2------|
A--2---2-2-2---2-2-2---2-2-2---2-2-2---5---0-0-0----|
E------------------------------------0-3-0----------|
       * * *   * *     * * *   * *   *   *     *

Repeat Twice:
E------------------------------------------------------|
B------------------------------------------------------|
G------------------------------------------------------|
D--4-----------------4-----------------4---7---7-7-----|
A--2---2-2-2-2-2-2---2---2-2-2-2-2-2---2-0-5-0-4-4-0---|
E------------------------------------------------------|
       * * * * * *       * * * * * *     *   *     *

E------------------------------------------------------|
B------------------------------------------------------|
G------------------------------------------------------|
D--4-----------------4-----------------4-------2-2-----|
A--2---2-2-2-2-2-2---2---2-2-2-2-2-2---2---5---0-0-0---|
E----------------------------------------0-3-0---------|
       * * * * * *       * * * * * *     *   *     *


Verse: Play 4 Times


I couldn’t figure out the lead to the verse so I just play the rhythm.

       |-3-|   |-3-|   |-3-|   |-3-|   |-3-|   |-3------------|
E-------------------------------------------------------------|
B-------------------------------------------------------------|
G-------------------------------------------------------------|
D-------------------------------------------------------------|
A--5---------------5---------------5---------------5----------|
E--3---3-3-3---3-3-3---3-3-3---3-3-3---3-3-3---3-3-3---3-3----|
       * * *   * *     * * *   * *     * * *   * *     * *

       |-3-|    |-3-|             |-3-|   |-3-----------|
E-------------------------------------------------------|
B-------------------------------------------------------|
G-------------------------------------------------------|
D-------------------------------------------------------|
A--9---------------9---------7---------------7----------|
E--7---7-7-7---7-7-7---7-7---5---5-5-5---5-5-5---5-5----|
       * * *   * *     * *       * * *   * *     * *

Repeat Twice:
E------------------------------------------------------|
B------------------------------------------------------|
G------------------------------------------------------|
D--4-----------------4-----------------4---7---7-7-----|
A--2---2-2-2-2-2-2---2---2-2-2-2-2-2---2-0-5-0-4-4-0---|
E------------------------------------------------------|
       * * * * * *       * * * * * *     *   *     *

E------------------------------------------------------|
B------------------------------------------------------|
G------------------------------------------------------|
D--4-----------------4-----------------4-------2-2-----|
A--2---2-2-2-2-2-2---2---2-2-2-2-2-2---2---5---0-0-0---|
E----------------------------------------0-3-0---------|
       * * * * * *       * * * * * *     *   *     *


Chorus: Play Twice:

E-----------------------------------------------------------|
B-----------------------------------------------------------|
G-----------2h4-----------2h4-----------6h7-----------6h7---|
D--4-4-----------4-4-----------7-7-----------7-7------------|
A--2-0-2-2-------2-0-2-2-------5-4-5-5-------5-4-5-5--------|
E-----------------------------------------------------------|
       * *           * *           * *           * *

E---------------------------------------------------------|
B---------------------------------------------------------|
G-----------2h4-----------2h4-----------6h7---------------|
D--4-4-----------4-4-----------7-7-----------7--7---------|
A--2-0-2-2-------2-0-2-2-------5-4-5-5-------5--4--7--5---|
E--------------------------------------------------5--3---|
       * *           * *           * *             *  *

(Intro)
(Verse x2)

Play 4 Times:
E------------------------------------------------------|
B------------------------------------------------------|
G------------------------------------------------------|
D--4-----------------4-----------------4---7---7-7-----|
A--2---2-2-2-2-2-2---2---2-2-2-2-2-2---2-0-5-0-4-4-0---|
E------------------------------------------------------|
       * * * * * *       * * * * * *     *   *     *

E------------------------------------------------------|
B------------------------------------------------------|
G------------------------------------------------------|
D--4-----------------4-----------------4-------2-2-----|
A--2---2-2-2-2-2-2---2---2-2-2-2-2-2---2---5---0-0-0---|
E----------------------------------------0-3-0---------|
       * * * * * *       * * * * * *     *   *     *

(Play Chorus)

I couldn’t get the solo but I will eventually but for not, here’s the rhythm.

E--------------------------------------------------------------------|
B--------------------------------------------------------------------|
G--------------------------------------------------------------------|
D--4-4-4-----------4-4-4-----------7-7-7-----------7-7-7-------------| x3
A--2-0-2-2-2-2-2---2-0-2-2-2-2-2---5-4-5-5-5-5-5---5-4-5-5-5-5-5-----|
E--------------------------------------------------------------------|
         * * * *         * * * *         * * * *         * * * *
E----------------------------------------------------------|
B----------------------------------------------------------|
G----------------------------------------------------------|
D--4-4-4-----------4-4-4-----------7-7-7-------------------|
A--2-0-2-2-2-2-2---2-0-2-2-2-2-2---5-4-5-5-5-5-----5-4-----|
E------------------------------------------------5-----5---|
         * * * *         * * * *         * * *
(Play Verse x2)

Ending:
E-------------------------------------------------------------------------|
B-------------------------------------------------------------------------|
G-------------------------------------------------------------------------|
D--4-----4---2---5---5-5-5-5--4-------4---4-----4---2---5---7-7--7-7--x---|x3
A--2---2-2-2-2-2-2--------------7-5-7-----2---2-2-2-2-2-2---5-5--4-4--x---|
E-------------------------------------------------------------------------|
       *   *   *     * * * *                  *   *   *

E--------------------------------------------------|
B--------------------------------------------------|
G--------------------------------------------------|
D--4-----4---2---5---7-7--7-7----------------------|
A--2---2-2-2-2-2-2---5-5--4-4--9-------------------|
E------------------------------7---7(slide down)---|

I saw that there was no good tabs for this song so I decided to give it a try.
Sounds pretty good to me?





Comments


Popular 3 Inches Of Blood tabs & chords
Premonition Of Pain Bass Tabs
Balls Of Ice Tabs
Crazy Nights Intro Tabs
Fear On The Bridge 1 Tabs
God Of The Cold White Silence 1 Tabs
Onward To Valhalla Tabs
Rejoice In The Fire Of Mans Demise Tabs
Silent Killer Tabs
Skeletal Onslaught Intro Tabs
Through The Horned Gate Tabs


Song lyrics



↑ Back to top | Tablatures and chords are parodies/interpretations of the original songs. You may use it for private study, scholarship, research or language learning purposes only
© 2014 AZChords.com Contact us | Privacy policy | DMCA | Add/correct tabs | Request tabs | Top 50 tabs