>
 >
Revenge Is A Vulture

Revenge Is A Vulture Bass Tabs

3 Inches Of Blood - Revenge Is A Vulture chords, tabs, tablatures, lyrics

Guitar lessons | Add/correct | Request | Top 50 tabs Artists:  A B C D E F G H I J K L M N O P Q R S T U V W X Y Z 0-9

Revenge Is A Vulture Bass Tabs – 3 Inches Of Blood

CD, Sheet music, Poster

Do you like Revenge Is A Vulture? Share with your friends now
Bass TabsTabs

Bass

     H         E  S S E  E     H         H             H         E  S S E  E   
G||-------------------------|-----------------------|-------------------------|
D||-------------------------|-----------------------|-------------------------|
A||--2~--------L--0-2-4--0--|-----------------------|--2~--------L--0-2-4--0--|
E||-------------------------|--3~--------3br--------|-------------------------|


  H         S S S S S S S S    E  H.           E     H        S S S S S S S S  
----------------------------|---------------------|---------------------------|
----------------------------|---------------------|---------------------------|
----------------5-5-4-4-0-2-|--L------------------|-----------2-2-----0-0-0-2-|
--3~--------3-3-------------|---------------------|---------------3-3---------|


  S S S S S S S S S S S S S S S S    S S S S S S S S S S S S S S S S  
----------------------------------|----------------------------------|
----------------------------------|----------------------------------|
--L-0-0-0-2-0-0-0-2-0-5-5-4-4-0-2-|--L-0-0-0-2-0-0-0-2-2-----0-0-0-2-|
----------------------------------|----------------------3-3---------|


  S S S S S S S S S S S S S S S S    S S S S S S S S S S S S S S S S  
----------------------------------|----------------------------------|
----------------------------------|----------------------------------|
--L-0-0-0-2-0-0-0-2-0-5-5-4-4-0-2-|--L-0-0-0-2-0-0-0-2-2-----0-0-0---|
----------------------------------|----------------------3-3-------3-|


  S S S S S S S S S S S S S S S S    S S S S S S S S S S S S S S S S  
----------------------------------|----------------------------------|
----------------------------------|----------------------------------|
--------------------------------2-|--L-2-2-2-2-2-2-0-L-0-0-0-0-0-0---|
--L-3-3-3-3-3-3-3-3-3-3-3-3-3-3---|--------------------------------3-|


  S S S S S S S S S S S S S S S S    S S S S S S S S S S S S S S S S  
----------------------------------|----------------------------------|
----------------------------------|----------------------------------|
--------------------------------2-|--L-2-2-2-2-2-2-0-L-0-0-0-0-0-0---|
--L-3-3-3-3-3-3-3-3-3-3-3-3-3-3---|--------------------------------3-|


  S S S S S S S S S S S S S S S S    S S S S S S S S S S S S S S S S  
----------------------------------|----------------------------------|
----------------------------------|----------------------------------|
--------------------------------2-|--L-2-2-2-2-2-2-0-L-0-0-0-0-0-0---|
--L-3-3-3-3-3-3-3-3-3-3-3-3-3-3---|--------------------------------3-|


  S S S S S S S S S S S S S S S S    S S S S S S S S S S S S S S S S  
----------------------------------|----------------------------------|
----------------------------------|----------------------------------|
--------------------------------2-|--L-2-2-2-2-2-2-----------------2-|
--L-3-3-3-3-3-3-3-3-3-3-3-3-3-3---|----------------0-L-0-0-0-0-0-0---|


  S S S S S S S S S S S S S S S S    S S S S S S S S S S S S S S S S  
----------------------------------|----------------------------------|
----------------------------------|----------------------------------|
--L-0-0-0-2-0-0-0-2-0-5-5-4-4-0-2-|--L-0-0-0-2-0-0-0-2-2-----0-0-0-2-|
----------------------------------|----------------------3-3---------|


  S S S S S S S S S S S S S S S S    S S S S S S S S S S S S S S S S  
----------------------------------|----------------------------------|
----------------------------------|----------------------------------|
--L-0-0-0-2-0-0-0-2-0-5-5-4-4-0-2-|--L-0-0-0-2-0-0-0-2-2-----0-0-0-2-|
----------------------------------|----------------------3-3---------|


  S E  S S S S S S E  S S S S S    S E  S S S S S S E  S S S S S  
--------------------------------|--------------------------------|
--------------------------------|--------------------------------|
--L-0--0-0-2-0-2-L-0--0-0-2-0-5-|--L-4--4-4-5-4-5-L-4--4-4-5-4-2-|
--------------------------------|--------------------------------|


  S E  S S S S S S E  S S S S S    S E  S S S S S S E  S S E  S  
--------------------------------|-------------------------------|
--------------------------------|-------------------------------|
--L-0--0-0-2-0-2-L-0--0-0-2-0-5-|--L-4--4-4-5-4-5-L-4--0-L----2-|
--------------------------------|--------------------------3----|


  S E  S S S S S S E  S S S S S    S E  S S S S S S E  S S S S S  
--------------------------------|--------------------------------|
--------------------------------|--------------------------------|
--L-0--0-0-2-0-2-L-0--0-0-2-0-5-|--L-4--4-4-5-4-5-L-4--4-4-5-4-2-|
--------------------------------|--------------------------------|


  S E  S S S S S S E  S S S S S    S E  S S S S S S E  S S E  S  
--------------------------------|-------------------------------|
--------------------------------|-------------------------------|
--L-0--0-0-2-0-2-L-0--0-0-2-0-5-|--L-4--4-4-5-4-5-L-4--0-L------|
--------------------------------|--------------------------3--L-|


  H         E  S S E  E     H         H             H         E  S S E  E   
-------------------------|-----------------------|-------------------------|
-------------------------|-----------------------|-------------------------|
--2~--------L--0-2-4--0--|-----------------------|--2~--------L--0-2-4--0--|
-------------------------|--3~--------3br--------|-------------------------|


  H         S S S S S S S S    S S S S S S S S S S S S S S S S  
----------------------------|----------------------------------|
----------------------------|----------------------------------|
----------------5-5-4-4-0---|--------------------------------2-|
--3~--------3-3-----------3-|--L-3-3-3-3-3-3-3-3-3-3-3-3-3-3---|


  S S S S S S S S S S S S S S S S    S S S S S S S S S S S S S S S S  
----------------------------------|----------------------------------|
----------------------------------|----------------------------------|
--L-2-2-2-2-2-2-0-L-0-0-0-0-0-0---|--------------------------------2-|
--------------------------------3-|--L-3-3-3-3-3-3-3-3-3-3-3-3-3-3---|


  S S S S S S S S S S S S S S S S    S S S S S S S S S S S S S S S S  
----------------------------------|----------------------------------|
----------------------------------|----------------------------------|
--L-2-2-2-2-2-2-0-L-0-0-0-0-0-0---|--------------------------------2-|
--------------------------------3-|--L-3-3-3-3-3-3-3-3-3-3-3-3-3-3---|


  S S S S S S S S S S S S S S S S    S S S S S S S S S S S S S S S S  
----------------------------------|----------------------------------|
----------------------------------|----------------------------------|
--L-2-2-2-2-2-2-0-L-0-0-0-0-0-0---|--------------------------------2-|
--------------------------------3-|--L-3-3-3-3-3-3-3-3-3-3-3-3-3-3---|


  S S S S S S S S S S S S S S S S    S S S S S S S S S S S S S S S S  
----------------------------------|----------------------------------|
----------------------------------|----------------------------------|
--L-2-2-2-2-2-2-----------------2-|--L-0-0-0-2-0-0-0-2-0-5-5-4-4-0-2-|
----------------0-L-0-0-0-0-0-0---|----------------------------------|


  S S S S S S S S S S S S S S S S    S S S S S S S S S S S S S S S S  
----------------------------------|----------------------------------|
----------------------------------|----------------------------------|
--L-0-0-0-2-0-0-0-2-2-----0-0-0-2-|--L-0-0-0-2-0-0-0-2-0-5-5-4-4-0-2-|
----------------------3-3---------|----------------------------------|


  S S S S S S S S S S S S S S S S    S S S S S S S S S S S S S S S S  
----------------------------------|----------------------------------|
----------------------------------|----------------------------------|
--L-0-0-0-2-0-0-0-2-2-----0-0-0-2-|--L-0-0-0-2-0-0-0-2-0-5-5-4-4-0-2-|
----------------------3-3---------|----------------------------------|


  S S S S S S S S S S S S S S S S    S S S S S S S S S S S S S S S S  
----------------------------------|----------------------------------|
----------------------------------|----------------------------------|
--L-0-0-0-2-0-0-0-2-2-----0-0-0-2-|--L-0-0-0-2-0-0-0-2-0-5-5-4-4-0-2-|
----------------------3-3---------|----------------------------------|


  S S S S S S S S S S S S S S S S    S E  S S S S S S E  S S S S S  
----------------------------------|--------------------------------|
----------------------------------|--------------------------------|
--L-0-0-0-2-0-0-0-2-2-----0-0-0-2-|--L-0--0-0-2-0-2-L-0--0-0-2-0-5-|
----------------------3-3---------|--------------------------------|


  S E  S S S S S S E  S S S S S    S E  S S S S S S E  S S S S S  
--------------------------------|--------------------------------|
--------------------------------|--------------------------------|
--L-4--4-4-5-4-5-L-4--4-4-5-4-2-|--L-0--0-0-2-0-2-L-0--0-0-2-0-5-|
--------------------------------|--------------------------------|


  S E  S S S S S S E  S S E  S    S E  S S S S S S E  S S S S S  
-------------------------------|--------------------------------|
-------------------------------|--------------------------------|
--L-4--4-4-5-4-5-L-4--0-L----2-|--L-0--0-0-2-0-2-L-0--0-0-2-0-5-|
--------------------------3----|--------------------------------|


  S E  S S S S S S E  S S S S S    S E  S S S S S S E  S S S S S  
--------------------------------|--------------------------------|
--------------------------------|--------------------------------|
--L-4--4-4-5-4-5-L-4--4-4-5-4-2-|--L-0--0-0-2-0-2-L-0--0-0-2-0-5-|
--------------------------------|--------------------------------|


  S E  S S S S S S E  S S E  S    S S E  S S S S S S E  S S S S  
-------------------------------|--------------------------------|
-------------------------------|--------------------------------|
--L-4--4-4-5-4-5-L-4--0-L----2-|--L-0-2--2-2-2-2-L-0-2--2-2-2-5-|
--------------------------3----|--------------------------------|


  S S E  S S S S S S E  S S S S    S S E  S S S S S S E  S S S S  
--------------------------------|--------------------------------|
--------------------------------|--------------------------------|
--L-4-5--5-5-5-5-L-4-5--5-5-5-2-|--L-0-2--2-2-2-2-L-0-2--2-2-2-5-|
--------------------------------|--------------------------------|


  S S E  S S S S S S E  S S S S    S S E  S S S S S S E  S S S S  
--------------------------------|--------------------------------|
--------------------------------|--------------------------------|
--L-4-5--5-5-5-5-L-4-5--5-5-5-2-|--L-0-2--2-2-2-2-L-0-2--2-2-2-5-|
--------------------------------|--------------------------------|


  S S E  S S S S S S E  S S S S    S S E  S S S S S S E  S S S S  
--------------------------------|--------------------------------|
--------------------------------|--------------------------------|
--L-4-5--5-5-5-5-L-4-5--5-5-5-2-|--L-0-2--2-2-2-2-L-0-2--2-2-2-5-|
--------------------------------|--------------------------------|


  S S E  S S S S S S S S S S S S    S S S S S S S S S S S S S S S S  
---------------------------------|----------------------------------|
---------------------------------|----------------------------------|
--L-4-5--5-5-5-5-----5-5-4-4-0---|--------------------------------2-|
-----------------3-3-----------3-|--L-3-3-3-3-3-3-3-3-3-3-3-3-3-3---|


  S S S S S S S S S S S S S S S S    S S S S S S S S S S S S S S S S  
----------------------------------|----------------------------------|
----------------------------------|----------------------------------|
--L-2-2-2-2-2-2-0-L-0-0-0-0-0-0---|--------------------------------2-|
--------------------------------3-|--L-3-3-3-3-3-3-3-3-3-3-3-3-3-3---|


  S S S S S S S S S S S S S S S S    S S S S S S S S S S S S S S S S  
----------------------------------|----------------------------------|
----------------------------------|----------------------------------|
--L-2-2-2-2-2-2-0-L-0-0-0-0-0-0---|--------------------------------2-|
--------------------------------3-|--L-3-3-3-3-3-3-3-3-3-3-3-3-3-3---|


  S S S S S S S S S S S S S S S S    S S S S S S S S S S S S S S S S  
----------------------------------|----------------------------------|
----------------------------------|----------------------------------|
--L-2-2-2-2-2-2-0-L-0-0-0-0-0-0---|--------------------------------2-|
--------------------------------3-|--L-3-3-3-3-3-3-3-3-3-3-3-3-3-3---|


  S S S S S S S S S S S S S S S S    H        S S S S S S S S  
----------------------------------|---------------------------|
----------------------------------|---------------4-2-0-2-4---|
--L-2-2-2-2-2-2-----------------2-|-----------2-4-----------2-|
----------------0-L-0-0-0-0-0-0---|---------------------------|


  H        S S S S S S S S    S S S S S S S S S S S S S S S S  
---------------------------|----------------------------------|
---------------------------|----------------------4-2-0-2-4---|
-----------5-4---4-L-0---2-|--L-2-5-0-4-0-7-0-2-4-----------2-|
---------------------------|----------------------------------|


  S S S S S S S S S E  S S E  S    S S S S S S S S S S S S S S S S  
--------------------------------|----------------------------------|
--------------------------------|----------------------4-2-0-2-4---|
--L-2-5-0-4-0-0-0-5-4--4-L-0--2-|--L-2-5-0-4-0-7-0-2-4-----------2-|
--------------------------------|----------------------------------|


  S S S S S S S S S E  S S E  S    S S S S S S S S S S S S S S S S  
--------------------------------|----------------------------------|
--------------------------------|----------------------4-2-0-2-4---|
--L-2-5-0-4-0-0-0-5-4--4-L-0--2-|--L-2-5-0-4-0-7-0-2-4-----------2-|
--------------------------------|----------------------------------|


  S S S S S S S S S E  S S E  S    S S S S S S S S S S S S S S S S  
--------------------------------|----------------------------------|
--------------------------------|----------------------4-2-0-2-4---|
--L-2-5-0-4-0-0-0-5-4--4-L-0--2-|--L-2-5-0-4-0-7-0-2-4-----------2-|
--------------------------------|----------------------------------|


  S S S S S S S S S E  S S E  S    W                  
--------------------------------|-------------------||
--------------------------------|-------------------||
--L-2-5-0-4-0-0-0-5-4--4-L-0--L-|--2----------------||
--------------------------------|-------------------||




Duration Legend
---------------
W - whole
H - half
Q - quarter
E - 8th
S - 16th
T - 32nd
X - 64th
. - note dotted
|-n-|  - n-tuplets


Tablature Legend
----------------
L - tied note
x - dead note
g - grace note
(n) - ghost note
> - accentuded note
NH - natural harmonic
AH - artificial harmonic
TH - tapped harmonic
SH - semi harmonic
PH - pitch harmonic
h - hammer on
p - pull off
b - bend
br - bendRelease
pb - preBend
pbr - preBendRelease
brb - bendReleaseBend
\n/ - tremolo bar dip
\n - tremolo bar dive
-/n - tremolo bar Release up
/n\ - tremolo bar inverted dip
/n - tremolo bar return
-\n - tremolo bar Release down
S - shift slide
s - legato slide
/ -  slide into from below or out of upwards
\ -  slide into from above or out of downwards
~ - vibrato
W - wide vibrato
tr - trill
TP - tremolo picking
T - tapping
S - slap
P - pop
< - fade in
^ - brush up
v - brush down





Comments


Popular 3 Inches Of Blood tabs & chords
Axes Of Evil Intro Tabs
Battles And Brotherhood Tabs
Deadly Sinners 1 Tabs
Deadly Sinners Intro Tabs
Fear On The Bridge 1 Tabs
God Of The Cold White Silence Tabs
Lord Of The Storm Upon The Boiling Sea 2 Tabs
Night Marauders Tabs
Ride Dark Horse Ride Intro Tabs
The Great Hall Of Feasting Tabs


Song lyrics



↑ Back to top | Tablatures and chords are parodies/interpretations of the original songs. You may use it for private study, scholarship, research or language learning purposes only
© 2014 AZChords.com Contact us | Privacy policy | DMCA | Add/correct tabs | Request tabs | Top 50 tabs