>
 >
Fear On The Bridge 1

Fear On The Bridge 1 Guitar Tabs

3 Inches Of Blood - Fear On The Bridge 1 chords, tabs, tablatures, lyrics

Guitar lessons | Add/correct | Request | Top 50 tabs Artists:  A B C D E F G H I J K L M N O P Q R S T U V W X Y Z 0-9

Fear On The Bridge 1 Guitar Tabs – 3 Inches Of Blood

CD, Sheet music, Poster

Do you like Fear On The Bridge 1? Share with your friends now
TabsTabs v2
                   3 Inches Of Blood
                          FEAR ON THE BRIDGE

Intro(4x)
e---------------------------------------------------------------------------|
B---------------------------------------------------------------------------|
G---------------------------------------------------------------------------|
D--2--2----10--9--8--9--10--9----------------2h3----------------5h6---------|
A--0--0----8---7--6--7--8---7----3--------3---------6--------6--------------|
E--------------------------------1--3--5------------4--6--8-----------------|
                                   .........          ........


Play 3x
e---------------------------------------------------------------------------|
B---------------------------------------------------------------------------|
G---------------------------------------------------------------------------|
D--2-------------7p4--7--6p4--6--9p6--9-------------------------------------|
A--0----0--0--0-------------------------------------------------------------|
E---------------------------------------------------------------------------|
       .........


Then This
e---------------------------------------------------------------------------|
B---------------------------------------------------------------------------|
G---------------------------------------------------------------------------|
D--2-------------7p4--7----6--3---------------------------------------------|
A--0--0--0--0--------------------5--4--3--2---------------------------------|
E---------------------------------------------------------------------------|
     .........

Harmony (Only play the 2nd time then go back to regular)
e---------------------------------------------------------------------------|
B---------------------------------------------------------------------------|
G---------------------------------------------------------------------------|
D--2-------------7p4--7--9p6--9--12p9--12-----------------------------------|
A--0----0--0--0-------------------------------------------------------------|
E---------------------------------------------------------------------------|


e---------------------------------------------------------------------------|
B---------------------------------------------------------------------------|
G---------------------------------------------------------------------------|
D--2-------------7p4--7----9--6---------------------------------------------|
A--0----0--0--0------------------8--7--6--5---------------------------------|
E---------------------------------------------------------------------------|

Play this 4x
e---------------------------------------------------------------------------|
B---------------------------------------------------------------------------|
G-------------------------------------------------1b------------------------|
D--------9--------9--------7--------7----------3--------3-------------------|
A-----7--------7--------5--------5----------3--------------3--0-------------|
E--5--------5--------3--------3----------1-----------------------3--1-------|

Then this
e---------------------------------------------------------------------------|
B---------------------------------------------------------------------------|
G---------------------------------------------------------------------------|
D----------------------------------------------------4b---------------------|
A--7----------------------------------------------3-------------------------|
E--5----5--5--5----5--5--5----5--5--5----0--1--4----------------------------|
       .........  .........  .........

e---------------------------------------------------------------------------|
B---------------------------------------------------------------------------|
G---------------------------------------------------------------------------|
D---------------------------------------------------------------------------|
A--7----------------------------------------------------------------8--5----|
E--5----5--5--5----5--5--5----5--5--5----7--5--4--4--2--1--7--5--4----------|
       .........  .........  .........

e---------------------------------------------------------------------------|
B---------------------------------------------------------------------------|
G---------------------------------------------------------------------------|
D---------------------------------------------------------------9h6---------|
A-----------------------------8h5----8--7--5--5--4--2--8--7--5--------------|
E--7--5--4--4--2--1--7--5--4------------------------------------------------|

Harmony
e---------------------------------------------------------------------------|
B---------------------------------------------------------------------------|
G----------------------------------------------------------------9h6--------|
D-----------------------------9h6----11--10--8--8--7--5--11--10-------------|
A--8--7--5--5--4--2--8--7--5------------------------------------------------|
E---------------------------------------------------------------------------|


e---------------------------------------------------------------------------|
B---------------------------------------------------------------------------|
G-------5--7----------------------------------------------------------------|
D-------3--5----------------------------------------------------------------|
A--7------------5--3----8--7--5---------------------------------------------|
E--5------------3--1-------------8--7--5--3---------------------------------|

Harmony
e---------------------------------------------------------------------------|
B---------------------------------------------------------------------------|
G-------5--7----------------------------------------------------------------|
D-------3--5----8--10-------------------------------------------------------|
A--7------------6--8--------7--5--3-----------------------------------------|
E--5---------------------------------7--5--3--2-----------------------------|

Then
e----------------------------------------------------------------------|
B----------------------------------------------------------------------|
G----------------------------------------------------------------------|
D----------------------------------------------------------------------|
A--7--7-------------------------------7--7-----------------------------|
E--5--5--5--5--5--5--5--5--5--5--5----5--5--5--5--5--5--5--5--5--5--5--|
        ...........................        ...........................

e---------------------------------------------------------------------------|
B---------------------------------------------------------------------------|
G---------------------------------------------------------------------------|
D---------------------------------------------------------------------------|
A--7--7----------------------------------------------------------3----------|
E--5--5--5--5--5--5--5--5--5--5--5----5--5--5--3--3--3--1--1--1-------------|
        ..........................   ...........................

e---------------------------------------------------------------------------|
B---------------------------------------------------------------------------|
G---------------------------------------------------------------------------|
D---------------------------------------------------------------------------|
A-------------10--------------9---------------7---------------9----3--3--3--|
E--5--5--5----8----5--5--5----7----5--5--5----5----5--5--5----7-------------|
  .........       .........       .........       .........       .........

e---------------------------------------------------------------------------|
B---------------------------------------------------------------------------|
G---------------------------------------------------------------------------|
D--10------------9-------------10------------12-----------------------------|
A--8----3--3--3--7----3--3--3--8----3--3--3--10-----------------------------|
E---------------------------------------------------------------------------|
       .........     .........     .........


Harmony
e------------------------------------------------------------------------|
B------------------------------------------------------------------------|
G------------------------------------------------------------------------|
D------------------------------------------------------------------------|
A------------------------------------------------------------------------|
E--5--5--5----8p5----5--5--5----7p5----5--5--5----5----5--5--5----7p5----|
  .........         .........         .........       .........

e---------------------------------------------------------------------------|
B---------------------------------------------------------------------------|
G---------------------------------------------------------------------------|
D---------------------------------------------------------------------------|
A---------------------------------------------------------------------------|
E--8--8--8----12p8----8--8--8----10p8----8--8--8----12p8----8--8--8----13p8-|
  .........          .........          .........          .........


Now this (4x) (Harmony all the way at the bottom)
e---------------------------------------------------------------------------|
B---------------------------------------------------------------------------|
G---------------------------------------------------------------------------|
D----------------------------------5--5-------------------------------------|
A--------------7--7----------------3--3----------------2--3-----------------|
E--0--0--0--0--5--5----0--0--0--0----------0--0--0--0--0--1----0--0--0--0---|
  ............        ............        ............        ............

e--------|------------------------------------------------------------------|
B--------|------------------------------------------------------------------|
G--------|------------------------------------------------------------------|
D--------|------------------------------------------------------------------|
A--3--5--|-----------------------------8h5-----7----------------------------|
E--1--3--|--7--5--4--4--2--1--7--5--4----------5----5--5--5----5--5--5----5-|
                                                   .........  .........  ...

e--------------------------------------------------------------------------|
B--------------------------------------------------------------------------|
G--------------------------------------------------------------------------|
D----------------------4b--------------------------------------------------|
A-------------------3--------7---------------------------------------------|
E--5--5----0--1--4-----------5----5--5--5----5--5--5----5--5--5----7--5--4-|
  ......                         .........  .........  .........

e----------------------------------------------------------------------------|
B----------------------------------------------------------------------------|
G----------------------------------------------------------------------------|
D----------------------------------------------------------------------------|
A-------------------8h5-----7----------------------------------------------3-|
E-4--2--1--7--5--4----------5----5--5--5----5--5--5----5--5--5----0--1--4----|
                                .........  .........  .........

e----------------------------------------------------------------------------|
B----------------------------------------------------------------------------|
G----------------------------------------------------------------------------|
D--6b------------------------------------------------------------------------|
A--------7---------------------------------------------------------------8h5-|
E--------5----5--5--5----5--5--5----5--5--5----7--5--4--4--2--1--7--5--4-----|
             .........  .........  .........

e--------------------------------------------------|
B--------------------------------------------------|
G--------------------------------------------------|
 D------------------------------9h6----------------|
A--8--7--5--5--4--2--8--7--5-----------------------|
E--------------------------------------------------|

Then this (4x)
e---------------------------------------------------------------------------|
B---------------------------------------------------------------------------|
G-------5--7----------------------------------------------------------------|
D-------3--5----------------------------------------------------------------|
A--7------------5--3----8--7--5---------------------------------------------|
E--5------------3--1-------------8--7--5--3---------------------------------|

Harmony
e---------------------------------------------------------------------------|
B---------------------------------------------------------------------------|
G-------5--7----------------------------------------------------------------|
D-------3--5----8--10----7--5--3--------------------------------------------|
A--7------------6--8--------------7--5--3--2--------------------------------|
E--5------------------------------------------------------------------------|


Then this(3x)
e---------------------------------------------------------------------------|
B---------------------------------------------------------------------------|
G---------------------------------------------------------------------------|
D--2--2-----------7p4--7--6p4--6--9p6--9------------------------------------|
A--0--0--0--0--0------------------------------------------------------------|
E---------------------------------------------------------------------------|
        .........

e---------------------------------------------------------------------------|
B---------------------------------------------------------------------------|
G---------------------------------------------------------------------------|
D--2--2-----------7p4--7-----6--3-------------------------------------------|
A--0--0--0--0--0-------------------5--4--2--3-------------------------------|
E---------------------------------------------------------------------------|
        .........


Harmony play(3x)
e---------------------------------------------------------------------------|
B---------------------------------------------------------------------------|
G---------------------------------------------------------------------------|
D--2--2-----------10p7--10--9p6--9--12p10--12-------------------------------|
A--0--0--0--0--0------------------------------------------------------------|
E---------------------------------------------------------------------------|
        .........

e---------------------------------------------------------------------------|
B---------------------------------------------------------------------------|
G---------------------------------------------------------------------------|
D--2--2-----------10p7--10--12--10------------------------------------------|
A--0--0--0--0--0--------------------11--10--9--8----------------------------|
E---------------------------------------------------------------------------|
        .........

                   3 Inches Of Blood
                          FEAR ON THE BRIDGE

Intro
e---------------------------------------------------------------------------|
B---------------------------------------------------------------------------|
G---------------------------------------------------------------------------|
D--2--2----10--9--8--9--10--9----------------2h3----------------5h6---------|
A--0--0----8---7--6--7--8---7----3--------3---------6--------6--------------|
E--------------------------------1--3--5------------4--6--8-----------------|
                                   .........          ........


Play 3x
e---------------------------------------------------------------------------|
B---------------------------------------------------------------------------|
G---------------------------------------------------------------------------|
D--2-------------7p4--7--6p4--6--9p6--9-------------------------------------|
A--0----0--0--0-------------------------------------------------------------|
E---------------------------------------------------------------------------|
       .........


Then This
e---------------------------------------------------------------------------|
B---------------------------------------------------------------------------|
G---------------------------------------------------------------------------|
D--2-------------7p4--7----6--3---------------------------------------------|
A--0--0--0--0--------------------5--4--3--2---------------------------------|
E---------------------------------------------------------------------------|
     .........

Harmony (Only play the 2nd time then go back to regular)
e---------------------------------------------------------------------------|
B---------------------------------------------------------------------------|
G---------------------------------------------------------------------------|
D--2-------------7p4--7--9p6--9--12p9--12-----------------------------------|
A--0----0--0--0-------------------------------------------------------------|
E---------------------------------------------------------------------------|


e---------------------------------------------------------------------------|
B---------------------------------------------------------------------------|
G---------------------------------------------------------------------------|
D--2-------------7p4--7----9--6---------------------------------------------|
A--0----0--0--0------------------8--7--6--5---------------------------------|
E---------------------------------------------------------------------------|

Play this 4x
e---------------------------------------------------------------------------|
B---------------------------------------------------------------------------|
G-------------------------------------------------1b------------------------|
D--------9--------9--------7--------7----------3--------3-------------------|
A-----7--------7--------5--------5----------3--------------3--0-------------|
E--5--------5--------3--------3----------1-----------------------3--1-------|

Then this
e---------------------------------------------------------------------------|
B---------------------------------------------------------------------------|
G---------------------------------------------------------------------------|
D----------------------------------------------------4b---------------------|
A--7----------------------------------------------3-------------------------|
E--5----5--5--5----5--5--5----5--5--5----0--1--4----------------------------|
       .........  .........  .........

e---------------------------------------------------------------------------|
B---------------------------------------------------------------------------|
G---------------------------------------------------------------------------|
D---------------------------------------------------------------------------|
A--7----------------------------------------------------------------8--5----|
E--5----5--5--5----5--5--5----5--5--5----7--5--4--4--2--1--7--5--4----------|
       .........  .........  .........

e---------------------------------------------------------------------------|
B---------------------------------------------------------------------------|
G---------------------------------------------------------------------------|
D---------------------------------------------------------------9h6---------|
A-----------------------------8h5----8--7--5--5--4--2--8--7--5--------------|
E--7--5--4--4--2--1--7--5--4------------------------------------------------|

Harmony
e---------------------------------------------------------------------------|
B---------------------------------------------------------------------------|
G----------------------------------------------------------------9h6--------|
D-----------------------------9h6----11--10--8--8--7--5--11--10-------------|
A--8--7--5--5--4--2--8--7--5------------------------------------------------|
E---------------------------------------------------------------------------|


e---------------------------------------------------------------------------|
B---------------------------------------------------------------------------|
G-------5--7----------------------------------------------------------------|
D-------3--5----------------------------------------------------------------|
A--7------------5--3----8--7--5---------------------------------------------|
E--5------------3--1-------------8--7--5--3---------------------------------|

Harmony
e---------------------------------------------------------------------------|
B---------------------------------------------------------------------------|
G-------5--7----------------------------------------------------------------|
D-------3--5----8--10-------------------------------------------------------|
A--7------------6--8--------7--5--3-----------------------------------------|
E--5---------------------------------7--5--3--2-----------------------------|

Then
e----------------------------------------------------------------------|
B----------------------------------------------------------------------|
G----------------------------------------------------------------------|
D----------------------------------------------------------------------|
A--7--7-------------------------------7--7-----------------------------|
E--5--5--5--5--5--5--5--5--5--5--5----5--5--5--5--5--5--5--5--5--5--5--|
        ...........................        ...........................

e---------------------------------------------------------------------------|
B---------------------------------------------------------------------------|
G---------------------------------------------------------------------------|
D---------------------------------------------------------------------------|
A--7--7----------------------------------------------------------3----------|
E--5--5--5--5--5--5--5--5--5--5--5----5--5--5--3--3--3--1--1--1-------------|
        ..........................   ...........................

e---------------------------------------------------------------------------|
B---------------------------------------------------------------------------|
G---------------------------------------------------------------------------|
D---------------------------------------------------------------------------|
A-------------10--------------9---------------7---------------9----3--3--3--|
E--5--5--5----8----5--5--5----7----5--5--5----5----5--5--5----7-------------|
  .........       .........       .........       .........       .........

e---------------------------------------------------------------------------|
B---------------------------------------------------------------------------|
G---------------------------------------------------------------------------|
D--10------------9-------------10------------12-----------------------------|
A--8----3--3--3--7----3--3--3--8----3--3--3--10-----------------------------|
E---------------------------------------------------------------------------|
       .........     .........     .........


Harmony
e------------------------------------------------------------------------|
B------------------------------------------------------------------------|
G------------------------------------------------------------------------|
D------------------------------------------------------------------------|
A------------------------------------------------------------------------|
E--5--5--5----8p5----5--5--5----7p5----5--5--5----5----5--5--5----7p5----|
  .........         .........         .........       .........

e---------------------------------------------------------------------------|
B---------------------------------------------------------------------------|
G---------------------------------------------------------------------------|
D---------------------------------------------------------------------------|
A---------------------------------------------------------------------------|
E--8--8--8----12p8----8--8--8----10p8----8--8--8----12p8----8--8--8----13p8-|
  .........          .........          .........          .........


Now this (4x)
e---------------------------------------------------------------------------|
B---------------------------------------------------------------------------|
G---------------------------------------------------------------------------|
D----------------------------------5--5-------------------------------------|
A--------------7--7----------------3--3----------------2--3-----------------|
E--0--0--0--0--5--5----0--0--0--0----------0--0--0--0--0--1----0--0--0--0---|
  ............        ............        ............        ............

e--------|------------------------------------------------------------------|
B--------|------------------------------------------------------------------|
G--------|------------------------------------------------------------------|
D--------|------------------------------------------------------------------|
A--3--5--|-----------------------------8h5-----7----------------------------|
E--1--3--|--7--5--4--4--2--1--7--5--4----------5----5--5--5----5--5--5----5-|
                                                   .........  .........  ...

e--------------------------------------------------------------------------|
B--------------------------------------------------------------------------|
G--------------------------------------------------------------------------|
D----------------------4b--------------------------------------------------|
A-------------------3--------7---------------------------------------------|
E--5--5----0--1--4-----------5----5--5--5----5--5--5----5--5--5----7--5--4-|


e----------------------------------------------------------------------------|
B----------------------------------------------------------------------------|
G----------------------------------------------------------------------------|
D----------------------------------------------------------------------------|
A-------------------8h5-----7----------------------------------------------3-|
E-4--2--1--7--5--4----------5----5--5--5----5--5--5----5--5--5----0--1--4----|
                                .........  .........  .........

e----------------------------------------------------------------------------|
B----------------------------------------------------------------------------|
G----------------------------------------------------------------------------|
D--6b------------------------------------------------------------------------|
A--------7---------------------------------------------------------------8h5-|
E--------5----5--5--5----5--5--5----5--5--5----7--5--4--4--2--1--7--5--4-----|
             .........  .........  .........

e----------------------------------------------------|
B----------------------------------------------------|
G----------------------------------------------------|
 D------------------------------9h6------------------|
A--8--7--5--5--4--2--8--7--5-------------------------|
E----------------------------------------------------|

Then this (4x)
e---------------------------------------------------------------------------|
B---------------------------------------------------------------------------|
G-------5--7----------------------------------------------------------------|
D-------3--5----------------------------------------------------------------|
A--7------------5--3----8--7--5---------------------------------------------|
E--5------------3--1-------------8--7--5--3---------------------------------|

Harmony
e---------------------------------------------------------------------------|
B---------------------------------------------------------------------------|
G-------5--7----------------------------------------------------------------|
D-------3--5----8--10----7--5--3--------------------------------------------|
A--7------------6--8--------------7--5--3--2--------------------------------|
E--5------------------------------------------------------------------------|


Then this(3x)
e---------------------------------------------------------------------------|
B---------------------------------------------------------------------------|
G---------------------------------------------------------------------------|
D--2--2-----------7p4--7--6p4--6--9p6--9------------------------------------|
A--0--0--0--0--0------------------------------------------------------------|
E---------------------------------------------------------------------------|
        .........

e---------------------------------------------------------------------------|
B---------------------------------------------------------------------------|
G---------------------------------------------------------------------------|
D--2--2-----------7p4--7-----9p6--------------------------------------------|
A--0--0--0--0--0------------------8--7--6--5--------------------------------|
E---------------------------------------------------------------------------|
        .........


Harmony play(3x)
e---------------------------------------------------------------------------|
B---------------------------------------------------------------------------|
G---------------------------------------------------------------------------|
D--2--2-----------10p7--10--9p6--9--12p10--12-------------------------------|
A--0--0--0--0--0------------------------------------------------------------|
E---------------------------------------------------------------------------|
        .........


Harmony to the part up there ^^
e----------------------------------------------------------------------------|
B----------------------------------------------------------------------------|
G----------------------------------------------------------------------------|
D-----------7--7-----------10--10-----------2--3-----------3--5--------------|
A--0--0--0--------0--0--0----------0--0--0--------0--0--0--------------------|
E----------------------------------------------------------------------------|
  .........      .........        .........      .........





Comments


Popular 3 Inches Of Blood tabs & chords
Assassins Of The Light Tabs
Bloody Screams Tabs
Deadly Sinners 1 Tabs
Deadly Sinners Intro Tabs
Goatriders Horde Tabs
God Of The Cold White Silence Tabs
Skeletal Onslaught Intro Tabs
Trial Of Champions Tabs
Trial Of Champions Intro Tabs
Wykydtron Tabs


Song lyrics



↑ Back to top | Tablatures and chords are parodies/interpretations of the original songs. You may use it for private study, scholarship, research or language learning purposes only
© 2014 AZChords.com Contact us | Privacy policy | DMCA | Add/correct tabs | Request tabs | Top 50 tabs