» » »

Fear On The Bridge Tabs (ver.1)

Artists:  A B C D E F G H I J K L M N O P Q R S T U V W X Y Z # 

Fear On The Bridge Tabs (ver.1)

3 Inches Of Blood
Rating:
4/5 (1 vote)

Hard to play? Try these video lessons and learn fast.
                3 Inches of Blood
Fear on the Bridge (Upon the Boiling Sea)



Intro(4x)
      Ahhh...                     Behold a speeding shape..
e]---------------------------------------------------------------------------|
B]---------------------------------------------------------------------------|
G]---------------------------------------------------------------------------|
D]----------10--9--8--9--10--9----------------3/6----------------4/9---------|
A]----3-3---8---7--6--7--8---7----3--------3---------4--------5--------------|
E]----5-5-------------------------1--1--4------------6--6--7-----------------|
PM                                  .........          ........


 [VERSE]                                 
 ]GTR1                                      [2nd Ending of riff (Play 4th Time)
 ]In seas where Pirates dwell..         shadowed by SKULL! and crossboned force..
e]------------------------------------[-------------------------------------|
B]------------------------------------[-------------------------------------|
G]------------------------------------[-------------------------------------|
D]--2-------------7p4h7--6p3h6--9p6-9-[-2--------7p4h7--6p3-----------------|
A]--0----0--0--0----------------------[-0--0-0-0------------5p2-------------|
E]------------------------------------[-------------------------4/1---------|
 ]    									    |
 ]GTR2 plays harmony 2nd round     					    |
e]--------------------------------------------------------------------------|
B]--------------------------------------------------------------------------|
G]--------------------------------------------------------------------------|
D]--2-------------7p4h7--9p6h9--12p9h12-------------------------------------|
A]--0----0--0--0------------------------------------------------------------|
E]--------------------------------------------------------------------------|




 [CPre Chorus] Played 4x
 ]                                     Raiders board the ship
e]--------------------------------------------------------------------------|
B]--------------------------------------------------------------------------|
G]--------------------------------------------------------------------------|
D]-------9-----9---------7-----7----------3/6--3----------------------------|
A]-----7-----7---------5-----5----------3--------5-2------------------------|
E]--5------5--------3------3----------1--------------3----------------------|
PM     .   . .         .   . .        
 



 This part is next and it's a little different
 First play main riff,
 Then 1st ending, repeat to main
 then 2nd ending, repeat to main
 then 3rd ending (same as first), repeat to main
 then 4th ending takes you to that high note & interlude (Plaaaank)
                     
 [CHORUS]               /1.Fight to the DEATH!    
  MAIN                  /3.Honor will SAY!    /2.There is no other way /4.Kill that' Captain's..   on...
e]----------------------]---------------------]------------------------]----------------------------------------|
B]o---------------------]--------------------o]-----------------------o]----------------------------------------|
G]----------------------]---------------------]------------------------]----------------------------------------|
D]----------------------]-----3-3s6-----------]--------------3333------]-------------3333-----------------5555--|
A]o--5------------------]---3----------------o]--2222----2222---------o]-2222----2222----------------3333-------|
E]---7--555-555-555-55--]-1-------------------]------1111--------------]-----1111----------------8\3------------|
        ... ... ... ..                                                                           ***
 *** = Trem. picking while slide down


[POST CHORUS]
This starts right when he hits that high note on PLAAAAAAANK!
Played 4x
 e]------------------------------|
 B]------------------------------|
 G]----5-7----5------------------|
 D]----3-5--5-3--3-2-0-----------|
 A]-5-------3----------3-2-0-----|
 E]-7------------------------3---|

[INTERLUDE]
  GTR1
   FLESH!           Rain begins to fall
 e]----------------------------------|
 B]----------------------------------|
 G]----------------------------------|
 D]-----------------------------5----|
 A]-77---77---77----7----5-3----3----|
 E]-55---55---55----5----3-1---------|   
  ]GTR2                              |
 e]----------------------------------|
 B]----------------------------------|
 G]-----------------------------5----|
 D]----------------------5-3----3----|
 A]-777777777777----7----3-1---------|
 E]-555555555555----5----------------|


  Mini-solo part
 e---------------------------------------------------------------------------|
 B---------------------------------------------------------------------------|
 G---------------------------------------------------------------------------|
 D---------------------------------------------------------------------------|
 A--0000-7p0-0000-5p0-0000-3p0-0000-5p0-0000-8p0-0000-7p0-0000-8p0-0000-10p0-| 
 E---------------------------------------------------------------------------|

  Solo continued (2parts for 1 guitar)
 e---------------------------------------------------------------------------|
 B---------------------------------------------------------------------------|
 G-----5-5----9--9---0-2--2-4------------------------------------------------|
 D-----7-7---10-10---2-3--3-5------------------------------------------------|
 A--000---000-----000---00---------------------------------------------------|
 E---------------------------------------------------------------------------|
    ...   ...     ...   ..

 Now theres a little drum fill and the guitar goes something like this
 
   FLESH!           Rain begins to fall
 e]----------------------------------|
 B]----------------------------------|
 G]----------------------------------|
 D]--------------------3-------------|
 A]--3-2-0-------3-2-0---------------|
 E]--------3-2-0---------------------| 

Repeat to Chorus & post chorus

[CODA] Same as earlier                           
 ]GTR1                         [2nd Ending of riff (Play 4th Time)
e]--------------------------------[--------------------------------|
B]--------------------------------[-------------------------------o|
G]--------------------------------[--------------------------------|
D]--2------7p4h7--6p3h6--9p6-9----[-2------7p4h7--6p3--------------|
A]--0-000-------------------------[-0-000-------------5p2---------o|
E]--------------------------------[-----------------------4/1------|
 ]    								   |
 ]GTR2 plays harmony  					           |
e]--------------------------------]--------------------------------|
B]--------------------------------]--------------------------------|
G]--------------------------------]--------------------------------|
D]--2-----10p7h10--9p6h9--12p9h12-]-2-----10p7h10--9p6-------------|
A]--0-000-------------------------]-0-000--------------8p5---------|
E]--------------------------------]------------------------7\4-----|
            
Hard to play? Try these video lessons and learn fast. | Correct




comments powered by Disqus
↑ Back to top | Tablatures and chords are parodies/interpretations of the original songs. You may use it for private study, scholarship, research or language learning purposes only