» » »

I Oughta Let Go Tabs (ver.1)

Artists:  A B C D E F G H I J K L M N O P Q R S T U V W X Y Z # 

I Oughta Let Go Tabs (ver.1)

38 Special
Rating:
0/5 (0 votes)

Hard to play? Try these video lessons and learn fast.
                -----------------------------------------------------------------------------


-----------------------------------------------------------------------------


Tuning: standard tuning

=============================================================================


Guitar 1



             E  E  E  S S E  S S S S  S S    E.  S E  S S E  S S S S  S S
E||-------|-------------------------------|-------------------------------|
B||-------|-------------------------------|-------------------------------|
G||-------|-------------------------------|-------------------------------|
D||-------|------------------x-x----------|-----------x-x----x-x----------|
A||-------|------------------x-x---2h-3-5-|-----------x-x----x-x---5h-7-5-|
E||-------|--3-----3--0-3-----------------|--3---0-3----------------------|


  E  E  S S S S S S  S S S S S S    S S E  S S S S E  S S S S  S S
---------------------------------|---------------------------------|
---------------------------------|---------------------------------|
---------------------------------|---------------------------------|
--------x-5---x----------5-5-----|-----------5---x-5--x-x----------|
-----5------------5h-7-5-----7-5-|--------------------------5h-7-5-|
--3------------------------------|--3-3-3--x-----------------------|


  E  E  S S S S S S  S S S S E     W                   Q     H.
--------------------------------|--2----------------|---------------------|
--------------------------------|--3----------------|--8\-----------------|
--------------------------------|--2----------------|---------------------|
--------x-5---x----------5-5----|--0----------------|---------------------|
-----5------------5h-7-5-----7--|-------------------|---------------------|
--3-----------------------------|-------------------|---------------------|


  E.  S S S E   Q     Q       W                   H        S S S S E  S S
---------------------------|-------------------|--------------------------|
------------8--10b---------|-------------------|--------------------------|
------7-9-7----------------|-------------------|--------------------------|
---------------------------|-------------------|-------------------5------|
---------------------------|-------------------|-------------5-7-5----7-5-|
---------------------------|-------------------|--------------------------|


  W                    Q      Q    H           H        Q     Q
-------------------|------------------------|-----------8\---------|
-------------------|--10b----10----8--------|-----------8\---------|
-------------------|------------------------|----------------------|
-------------------|------------------------|----------------------|
-------------------|------------------------|----------------------|
-------------------|------------------------|----------------------|


  Q.     H        E     Q.     H        E     E  S S S S E  E  E  E  E
--3------0--------L--|--2------0--------L--|-----7-----7----------------|
--0------1--------L--|--3------1--------L--|-----8-----8-------5-----7--|
--0------0--------L--|--2------0--------L--|--x--7-x-x-7-x--x--5--x--7--|
--0------2--------L--|--4------2--------L--|-------------------5-----7--|
---------------------|---------------------|----------------------------|
---------------------|---------------------|----------------------------|


  E  S S S S E  E  S S S S E     E  S S S S E  E  E  E  E
-----7-----7-------7-----7----|-----7-----7----------------|
-----8-----8-------8-----8----|-----8-----8-------5--------|
--x--7-x-x-7-x--x--7-x-x-7-x--|--x--7-x-x-7-x--x--5-----x--|
------------------------------|-------------------5--------|
------------------------------|----------------------------|
------------------------------|----------------------------|


  E  S S S S E  S  S  S  S S S E     E  S S S S E  E  E  E  E
----------------------------------|-----7-----7----------------|
-----7---x-7----8-10-10-10-8-7----|-----8-----8-------5-----7--|
--x--7-x-x-7-x--9-11-11-11-9-7----|--x--7-x-x-7-x--x--5--x--7--|
-----7-----7-------------------9--|-------------------5-----7--|
----------------------------------|----------------------------|
----------------------------------|----------------------------|


  E  S S S S E  E  S S S S E     H        Q    Q
-----7-----7-------7-----7----|--0--------0----2----|
-----8-----8-------8-----8----|--0--------1----3----|
--x--7-x-x-7-x--x--7-x-x-7-x--|--0--------0----2----|
------------------------------|--2--------2----4----|
------------------------------|---------------------|
------------------------------|---------------------|


  E  S S S S S S E  Q    E     Q     H.              E.  S S S E   Q     Q
-----------------3----------|---------------------|---------------------------|
-----5-5---7-----3----------|--8\-----------------|------------8--10b---------|
-----5-5-x-7---x-4----------|---------------------|------7-9-7----------------|
-----5-5---7-----5----------|---------------------|---------------------------|
----------------------------|---------------------|---------------------------|
----------------------------|---------------------|---------------------------|


  W                   H        S S S S E  S S    W
-------------------|--------------------------|-------------------|
-------------------|--------------------------|-------------------|
-------------------|--------------------------|-------------------|
-------------------|-------------------5------|-------------------|
-------------------|-------------5-7-5----7-5-|-------------------|
-------------------|--------------------------|-------------------|


   Q      Q    H           H        Q     Q       Q.     H        E
------------------------|-----------8\---------|--3------0--------L--|
--10b----10----8--------|-----------8\---------|--0------1--------L--|
------------------------|----------------------|--0------0--------L--|
------------------------|----------------------|--0------2--------L--|
------------------------|----------------------|---------------------|
------------------------|----------------------|---------------------|


  Q.     H        E     E  S S S S E  E  E  E  E
--2------0--------L--|-----7-----7----------------|
--3------1--------L--|-----8-----8-------5-----7--|
--2------0--------L--|--x--7-x-x-7-x--x--5--x--7--|
--4------2--------L--|-------------------5-----7--|
---------------------|----------------------------|
---------------------|----------------------------|


  E  S S S S E  E  S S S S E     E  S S S S E  E  E  E  E
-----7-----7-------7-----7----|-----7-----7----------------|
-----8-----8-------8-----8----|-----8-----8-------5--------|
--x--7-x-x-7-x--x--7-x-x-7-x--|--x--7-x-x-7-x--x--5-----x--|
------------------------------|-------------------5--------|
------------------------------|----------------------------|
------------------------------|----------------------------|


  E  S S S S E  S  S  S  S S S E     E  S S S S E  E  E  E  E
----------------------------------|-----7-----7----------------|
-----7---x-7----8-10-10-10-8-7----|-----8-----8-------5-----7--|
--x--7-x-x-7-x--9-11-11-11-9-7----|--x--7-x-x-7-x--x--5--x--7--|
-----7-----7-------------------9--|-------------------5-----7--|
----------------------------------|----------------------------|
----------------------------------|----------------------------|


  Q.     H        E     S S S S E  E  H
--3------0--------L--|-------------------------|-----------||
--0------1--------L--|--2-3--------------------|-----------||
--0------0--------L--|------3-4----------------|-----------||
--0------2--------L--|----------5--5--L--------|-----------||
---------------------|-------------------------|-----------||
---------------------|-------------------------|-----------||




Duration Legend
---------------
W - whole
H - half
Q - quarter
E - 8th
S - 16th
T - 32nd
X - 64th
. - note dotted
|-n-|  - n-tuplets


Tablature Legend
----------------
L - tied note
x - dead note
g - grace note
(n) - ghost note
> - accentuded note
NH - natural harmonic
AH - artificial harmonic
TH - tapped harmonic
SH - semi harmonic
PH - pitch harmonic
h - hammer on
p - pull off
b - bend
br - bendRelease
pb - preBend
pbr - preBendRelease
brb - bendReleaseBend
\n/ - tremolo bar dip
\n - tremolo bar dive
-/n - tremolo bar Release up
/n\ - tremolo bar inverted dip
/n - tremolo bar return
-\n - tremolo bar Release down
S - shift slide
s - legato slide
/ -  slide into from below or out of upwards
\ -  slide into from above or out of downwards
~ - vibrato
W - wide vibrato
tr - trill
TP - tremolo picking
T - tapping
S - slap
P - pop
< - fade in
^ - brush up
v - brush down
            
Hard to play? Try these video lessons and learn fast. | Correct




comments powered by Disqus
↑ Back to top | Tablatures and chords are parodies/interpretations of the original songs. You may use it for private study, scholarship, research or language learning purposes only