» » »

I Oughta Let Go Bass tabs (ver.1)

Artists:  A B C D E F G H I J K L M N O P Q R S T U V W X Y Z # 

I Oughta Let Go Bass tabs (ver.1)

38 Special
Rating:
0/5 (0 votes)

Tabs too difficult? Try these video lessons and learn fast.
                -----------------------------------------------------------------------------


-----------------------------------------------------------------------------


Tuning: standard tuning

=============================================================================

Bass



                                                     H.           E.  S
G||-------|-------|-------|-------|-------|-------|---------------------|
D||-------|-------|-------|-------|-------|-------|---------------------|
A||-------|-------|-------|-------|-------|-------|--5------------L-----|
E||-------|-------|-------|-------|-------|-------|-------------------2-|


  Q    S S S S E  E  Q       Q    S S S S E  E  S S S S
--------------------------|-----------------------------|
--------------------------|-----------------------------|
---------5---x-3-----5----|---------5---x-3-----5-------|
--3-----------------------|--3--------------------0-1-2-|


  Q    S S S S E  E  Q       S S S S S S S S E  E  E  S S
--------------------------|-------------------------------|
--------------------------|-------------------------------|
---------5---x-3-----5----|--3-3-3-3---3---4-5-----3------|
--3-----------------------|---------------------------0-2-|


  Q    S S S S Q    Q       Q    Q    H           S S S S S S S S E  Q    E
-------------------------|---------------------|-----------------------------|
-------------------------|---------------------|-----------------------------|
---------5---x-3----5----|--7----5----3--------|--------2---2---2-3----------|
--3----------------------|---------------------|--5-5-5----------------------|


  Q.      Q.      S  E.      Q    E  H        E     Q    E  E  Q    Q
--------------------------|----------------------|-----------------------|
--------------------------|----------5--------L--|-----------------------|
---------10------10-10\---|----------------------|----------2--3----5----|
--3-----------------------|--3-------------------|--3--------------------|


  Q    S S S S H           Q.     S  S Q    Q       Q    S S E  S E.  S S E
------------------------|------------------------|---------------------------|
------------------------|------------------------|---------------------------|
------------------------|---------0h-2-3----2----|--5----L----------------5--|
--3----L-0-1-2-3--------|--3---------------------|---------2-2--x-3---L-5----|


  Q.     S  S Q    Q       Q    E  S S Q    E  S  S    H         Q    Q
------------------------|---------------------------|----------------------|
------------------------|--------------5------------|----------------------|
---------0h-2-3----5----|----------5-7---------7p-5-|--7\--------5----3----|
--3---------------------|--3------------------------|----------------------|


  Q    S S S S E  S E  S E     Q    S S S S E  E  Q
----------------------------|--------------------------|
----------------------------|--------------------------|
----------------------------|---------5---x-3-----5----|
-------3-3---3----3----0-2--|--3-----------------------|


  Q    S S S S E  E  S S S S    Q    S S S S E  E  Q
-----------------------------|--------------------------|
-----------------------------|--------------------------|
---------5---x-3-----5-------|---------5---x-3-----5----|
--3--------------------0-1-2-|--3-----------------------|


  S S S S S S S S E  E  E  S S    Q    S S S S Q    Q       Q    Q    H
-------------------------------|-------------------------|---------------------|
-------------------------------|-------------------------|---------------------|
--3-3-3-3---3---4-5-----3------|---------5---x-3----5----|--7----5----3--------|
---------------------------0-2-|--3----------------------|---------------------|


  S S S S S S S S E  Q    E     Q.      Q.      S  E.      Q    E  H        E
-----------------------------|--------------------------|----------------------|
-----------------------------|--------------------------|----------5--------L--|
--------2---2---2-3----------|---------10------10-10\---|----------------------|
--5-5-5----------------------|--3-----------------------|--3-------------------|


  Q    E  E  Q    Q       Q    S S S S H           Q.     S  S Q    Q
-----------------------|------------------------|------------------------|
-----------------------|------------------------|------------------------|
----------2--3----5----|------------------------|---------0h-2-3----2----|
--3--------------------|--3----L-0-1-2-3--------|--3---------------------|


  Q    S S E  S E.  S S E     Q.     S  S Q    Q       Q.      Q.      S  E.
---------------------------|------------------------|--------------------------|
---------------------------|------------------------|--------------------------|
--5----L----------------5--|---------0h-2-3----5----|---------10------10-10\---|
---------2-2--x-3---L-5----|--3---------------------|--3-----------------------|


  Q    E  Q.     S  S S  S
---------------------------|----||
----------5----------------|----||
-----------------7p-5------|----||
--3-------------------7p-5-|----||




Duration Legend
---------------
W - whole
H - half
Q - quarter
E - 8th
S - 16th
T - 32nd
X - 64th
. - note dotted
|-n-|  - n-tuplets


Tablature Legend
----------------
L - tied note
x - dead note
g - grace note
(n) - ghost note
> - accentuded note
NH - natural harmonic
AH - artificial harmonic
TH - tapped harmonic
SH - semi harmonic
PH - pitch harmonic
h - hammer on
p - pull off
b - bend
br - bendRelease
pb - preBend
pbr - preBendRelease
brb - bendReleaseBend
\n/ - tremolo bar dip
\n - tremolo bar dive
-/n - tremolo bar Release up
/n\ - tremolo bar inverted dip
/n - tremolo bar return
-\n - tremolo bar Release down
S - shift slide
s - legato slide
/ -  slide into from below or out of upwards
\ -  slide into from above or out of downwards
~ - vibrato
W - wide vibrato
tr - trill
TP - tremolo picking
T - tapping
S - slap
P - pop
< - fade in
^ - brush up
v - brush down
            
Tabs too difficult? Try these video lessons and learn fast.




comments powered by Disqus
↑ Back to top | Tablatures and chords are parodies/interpretations of the original songs. You may use it for private study, scholarship, research or language learning purposes only