>
 >
Back Where You Belong

Back Where You Belong Bass Tabs

38 Special - Back Where You Belong chords, tabs, tablatures, lyrics

Guitar lessons | Add/correct | Request | Top 50 tabs Artists:  A B C D E F G H I J K L M N O P Q R S T U V W X Y Z 0-9

Back Where You Belong Bass Tabs – 38 Special

CD, Sheet music, Poster

Do you like Back Where You Belong? Share with your friends now
Bass TabsBass Tabs v2TabsTabs v2
#   If you like this tab, please rate it above.  Thank you.


 G  G  G  D  D  D  C  C  C  C  C  C    G  G  G  D  D  D  C  C  C  C  C  C
|-------------------------------------------------------------------------|
|-------------------------------------------------------------------------|
|-------------------------------------------------------------------------|
|-------------------------------------------------------------------------|

|12-12-11-11--------12-12-11-11----------------------------12-11---|
|------------12-12--------------12-12---10-10-10-10--12-12-------12|
|------------------------------------------------------------------|
|------------------------------------------------------------------|

|12-12-11-11--------12-12-11-11------------------------------------|
|------------12-12--------------12-12---10-10-10-10----------------|
|----------------------------------------------------5-55--5-55----|
|------------------------------------------------------------------|

|-------------------------------------------------------------------|
|------2-2--------2-2-----------------------------------------------|
|--33-5---0-2-3-5----0-2-3---5-55-5-55-------0-2-3--5-------0-2-3--5|
|--------------------------------------0-2-3----------0-2-3---------|

|-----------------------------------------------------------------|
|-----------------------------------------5------5---2-------5----|
|-------0-2-3--5-------0---3--2-3-5---------5-3----5--33-55---5-3-|
|-0-2-3----------0-2-3--------------------------------------------|

|12-12-11-11--------12-12-11-11----------------------------12-11---|
|------------12-12--------------12-12---10-10-10-10--12-12-------12|
|------------------------------------------------------------------|
|------------------------------------------------------------------|

|12-12-11-11--------12-12-11-11------------------------------------|
|------------12-12--------------12-12---10-10-10-10----------------|
|----------------------------------------------------5-55--5-55----|
|------------------------------------------------------------------|

|-------------------------------------------------------------------|
|------2-2--------2-2-----------------------------------------------|
|--33-5---0-2-3-5----0-2-3---5-55-5-55-------0-2-3--5-------0-2-3--5|
|--------------------------------------0-2-3----------0-2-3---------|

|-----------------------------------------------------------------|
|-----------------------------------------5------5---2-------5----|
|-------0-2-3--5-------0---3--2-3-5---------5-3----5--33-55---5-3-|
|-0-2-3----------0-2-3--------------------------------------------|

(Lead Break)
|---------------------------------------------------------------------|
|---------------------------------------------------------------------|
|--------------------------------------------1-1-1-1-0-0-0-0-3-3-3-3-3|
|1-1-1-1-1-3-3-3-3-3-1-1-1-1-3-3-3-3-1-1-1-1--------------------------|

|----------------------------------------------------------------|
|--------------------------0-------------------------------------|
|1-1-1-1-0-0-0-0-3-3-3-3-3---1----1-1-1-1-3-3-3-3-3-0-0-0-0---3-5|
|-----------------------------------------------------------3----|

|-------------------------|
|-5-------5--------5------|
|--5-3--5---5-3--5--5-3--5|
|-------------------------|

|12-12-11-11--------12-12-11-11----------------------------12-11---|
|------------12-12--------------12-12---10-10-10-10--12-12-------12|
|------------------------------------------------------------------|
|------------------------------------------------------------------|

|12-12-11-11--------12-12-11-11------------------------------------|
|------------12-12--------------12-12---10-10-10-10----------------|
|----------------------------------------------------5-55--5-55----|
|------------------------------------------------------------------|

|------------------------------------------------------------------------|
|------2-2--------2-2----------------------------------------------------|
|--33-5---0-2-3-5----0-2-3--5---33--55-5-55-------0-2-3--5-------0-2-3--5|
|-------------------------------------------0-2-3----------0-2-3---------|
(Repeats for end lead)
|--------------------------------------------------------------|
|--------------------------------------------------------------|
|-------0-2-3--5-------0-2-3--5--------0-2-3--5-------0-2-3--5-|
|-0-2-3----------0-2-3----------0-2-3-----------0-2-3----------|





Comments


Popular 38 Special tabs & chords
Fantasy Girl Bass Tabs
Twentieth Century Fox Bass Tabs
Fade To Blue Chords
Rebel To Rebel Chords
Hold On Loosely Intro Tabs
I Oughta Let Go Tabs
If Id Be The One Tabs
If Id Been The One Tabs
Hold On Loosely Ukulele
Rebel To Rebel Ukulele


Song lyrics



↑ Back to top | Tablatures and chords are parodies/interpretations of the original songs. You may use it for private study, scholarship, research or language learning purposes only
© 2014 AZChords.com Contact us | Privacy policy | DMCA | Add/correct tabs | Request tabs | Top 50 tabs