» » »

38 Special, Back Where You Belong Tabs (ver.1)

Artists:  A B C D E F G H I J K L M N O P Q R S T U V W X Y Z # 

Back Where You Belong Tabs (ver.1)

38 Special Tabs
Rating:
5/5 (1 vote)
Back Where You Belong lessons Tabs too difficult? Try these video lessons and learn fast
                #   If you like this tab, please rate it above.  Thank you.


(All chords played Barr starting at the 7th fret.)

  G  G  G  D  D  D  C  C  C  C  C  C    G  G  G  D  D  D  C  C  C  C  C  C
|-10-10-10-10-10-10-8--8--8--8--8--8--|-10-10-10-10-10-10-8--8--8--8--8--8--|
|-12-12-12-10-10-10-8--8--8--8--8--8--|-12-12-12-10-10-10-8--8--8--8--8--8--|
|-12-12-12-11-11-11-9--9--9--9--9--9--|-12-12-12-11-11-11-9--9--9--9--9--9--|
|-12-12-12-12-12-12-10-10-10-10-10-10-|-12-12-12-12-12-12-10-10-10-10-10-10-|
|-10-10-10-12-12-12-10-10-10-10-10-10-|-10-10-10-12-12-12-10-10-10-10-10-10-|
|----------10-10-10-8--8--8--8--8--8--|----------10-10-10-8--8--8--8--8--8--|

                                                 C  C C C C C C  G   D D
|----------------------x----------------------x--8—-8-8-8-8-8-8--10-1010-|
|----------------------x----------------------x--8—-8-8-8-8-8-8--12-1010-|
|----------------------x----------------------x--9—-9-9-9-9-9-9--12-1111-|
|-12-12-12-12-12-12-12-x-12-12-12-12-12-12-12-x-10-101010101010--12-1212-|
|-10-10-10--9--9--9—-9-x-10-10-10--9--9—-9—-9-x-10-101010101010--10-1212-|
|-------------------10-x-------------------10-x--8—-8-8-8-8-8-8--10-1010-|

I heard you're askin' how I'm feelin’, I guess I'll play it day by day
I'm still around now, my heart is healing, but some things never gonna’ change

        CC-D-Em               C       D              Em          C           D
'Cause now I know love ain't easy to find I let you go, now I'm changing my mind

Chorus:
             G        C          D   G                       C           D 
I know that love, it don't come easy, it took so long, it's been hard to find
    G         C     D        G                         C                       D 
So love, you must believe me, ain't gonna let it slip away I know I was wrong, 
D n/c                               G D C
   I want you back where you belong, 
C                               G D Em C D
Want you back where you belong, 
                      G D C  
back where you belong

                                                 C  C C C C C C  G   D D
|----------------------x----------------------x--8—-8-8-8-8-8-8--10-1010-|
|----------------------x----------------------x--8—-8-8-8-8-8-8--12-1010-|
|----------------------x----------------------x--9—-9-9-9-9-9-9--12-1111-|
|-12-12-12-12-12-12-12-x-12-12-12-12-12-12-12-x-10-101010101010--12-1212-|
|-10-10-10--9--9--9—-9-x-10-10-10--9--9—-9—-9-x-10-101010101010--10-1212-|
|-------------------10-x-------------------10-x--8—-8-8-8-8-8-8--10-1010-|

I played around now, I've done some dealin', I found that love should be with you 
And so you're gone now, my head is reelin', don't wanna be with someone new

         Em               C       D                Em            C             D
And so I go, with this feeling inside me, 'cause I know what I'm leaving behind

(chorus)


 
 
(Lead Solo)(Barr chords at 1st fret)
  F      G        F       G             F      Bb    A        C
|----------------------------------------------------------------|
|-6p5-/8—5p6------6p5-/8--5-6-3h5p3----6p5-/8--6-5---6-5---------|
|----7------7p5------7-------------5------7--------7----7-5-7/9--|
|--------------5--------------------5----------------------------|
|----------------------------------------------------------------|
|----------------------------------------------------------------|

Bb                A                       C               Dm         Bb
I guess in time I stop and think it over, everything that we've been through
Bb                      C                  A                    G       C  D
This heart of mine may never find another, it loves me just the way you do

(Short Solo)
G  D  C   D  G-D-C   D   G-D-C
|----------------------------------------------------------------------------|
|--------------------------------------------------------12b(13)-------------|
|--14b(16)-14b(16)—(16)p12—-12--12-12-14b(16)—(16)p12—-12--------------------|
|-------------------------14-------------------------14----------------------|
|----------------------------------------------------------------------------|
|----------------------------------------------------------------------------|
Hey girl!

|-------------------------------------------------------|(Close but not exact)
|-------------------13b15-------------------------------|
|--14b(16)—(16)p12—-------14b(16)—(16)p12--12-----------|
|-----------------14---------------------14-------------|
|-------------------------------------------------------|
|-------------------------------------------------------|

                                                 C  C C C C C C  G   D D
|----------------------x----------------------x--8—-8-8-8-8-8-8--10-1010-|
|----------------------x----------------------x--8—-8-8-8-8-8-8--12-1010-|
|----------------------x----------------------x--9—-9-9-9-9-9-9--12-1111-|
|-12-12-12-12-12-12-12-x-12-12-12-12-12-12-12-x-10-101010101010--12-1212-|
|-10-10-10--9--9--9—-9-x-10-10-10--9--9—-9—-9-x-10-101010101010--10-1212-|
|-------------------10-x-------------------10-x--8—-8-8-8-8-8-8--10-1010-|
I heard you're askin' how I'm feelin', I guess I'll play it day by day
I'm still around now, my heart is healin', but some things never gonna change

            Em               C       D              Em          C           D
Cause now I know love ain't easy to find I let you go, now I'm changing my mind

             G        C          D   G                       C           D 
I know that love, it don't come easy, it took so long, it's been hard to find
    G         C     D        G                         C                       D 
So love, you must believe me, ain't gonna let it slip away I know I was wrong, 
n/c                               G D C
I want you back where you belong, 
C                               G D Em C D
back where you belong, hey, hey
             G        C          D   G                       C           D 
I know that love, it don't come easy, it took so long, it's been hard to find
    G         C     D        G                         C                       D 
And so love, you must believe me, ain't gonna let it slip away, baby

(Outro Lead Solo)
G-D-C  D  G-D-C D........


(Last time)
G-D-C Em-D-G
            

comments powered by Disqus
↑ Back to top | 38 Special Tabs for Back Where You Belong. Lyrics for acoustic guitar and electric guitar. Tablatures and chords are parodies/interpretations of the original songs. You may use it for private study, scholarship, research or language learning purposes only