» » »

36 Crazyfists, We Gave It Hell Tabs (ver.3)

Artists:  A B C D E F G H I J K L M N O P Q R S T U V W X Y Z # 

We Gave It Hell Tabs (ver.3)

36 Crazyfists Tabs
 Rating:
4/5 (4 votes)
We Gave It Hell lessons Tabs too difficult? Try these video lessons and learn fast
1
                36 Crazyfists-We Gave It Hell
Drop C Tuning C, G, C, F, A, D
Revised Version With Chorus and Bridge

Intro
D------------------------------------|
A------------------------------------|
F------------------------------------|
C-5-5-5-2--5-5-5-2--5-5-5-0--5-5-5-2-|Hold
G-5-5-5-2--5-5-5-2--5-5-5-0--5-5-5-2-|Hold
C-5-5-5-2--5-5-5-2--5-5-5-0--5-5-5-2-|Hold

Verse
D-------------------------------------|x3
A-------------------------------------|
F-------------------------------------|
C-----------------------------5-5-5-2-|
G-----------------------------5-5-5-2-|
C-2-0-2-0-2-0-5-0-2-0-5-0-2-0-5-5-5-2-|

2nd Verse
D---------------------------|
A---------------------------|
F---------------------------|
C---------------------------|
G-----5-----5-----5---6-6-6-|
C-0-0---0-0---0-0---0-------|

Verse
D-------------------------------------|x2
A-------------------------------------|
F-------------------------------------|
C-----------------------------5-5-5-2-|
G-----------------------------5-5-5-2-|
C-2-0-2-0-2-0-5-0-2-0-5-0-2-0-5-5-5-2-|

Chorus                                                                                     
D---------------------------------------------------------------------------------------|
A---------------------------------------------------------------------------------------|
F---------------------------------------------------------------------------------------|
C-7-7-7-7-7-7-7-7-7-7-7-7-7-7-7-5-5-5-5-5-5-5-5-9-9-10-10-7-7-7-7-7-7-7-7-7-7-7-7-7-7-7-|
G-5-5-5-5-5-5-5-5-5-5-5-5-5-5-5-3-5-5-5-5-5-5-5-7-9-8--8--5-5-5-5-5-5-5-5-5-5-5-5-5-5-5-|
C---------------------------------------------------------------------------------------|

-------------------|------------------|
-------------------|------------------|
-------------------|------------------|
9-9-10-10-12-12-14-|-9-9-12-12-9-9-12-|
7-7-8--8--10-10-12-|-7-7-10-10-7-7-10-|
-------------------|------------------|

Verse
D-------------------------------------|x3
A-------------------------------------|
F-------------------------------------|
C-----------------------------5-5-5-2-|
G-----------------------------5-5-5-2-|
C-2-0-2-0-2-0-5-0-2-0-5-0-2-0-5-5-5-2-|

2nd Verse
D---------------------------|x2
A---------------------------|
F---------------------------|
C---------------------------|
G-----5-----5-----5---6-6-6-|
C-0-0---0-0---0-0---0-------|

Verse
D-------------------------------------|x2
A-------------------------------------|
F-------------------------------------|
C-----------------------------5-5-5-2-|
G-----------------------------5-5-5-2-|
C-2-0-2-0-2-0-5-0-2-0-5-0-2-0-5-5-5-2-|

Chorus                                                                                     
D---------------------------------------------------------------------------------------|
A---------------------------------------------------------------------------------------|
F---------------------------------------------------------------------------------------|
C-7-7-7-7-7-7-7-7-7-7-7-7-7-7-7-5-5-5-5-5-5-5-5-9-9-10-10-7-7-7-7-7-7-7-7-7-7-7-7-7-7-7-|
G-5-5-5-5-5-5-5-5-5-5-5-5-5-5-5-3-5-5-5-5-5-5-5-7-9-8--8--5-5-5-5-5-5-5-5-5-5-5-5-5-5-5-|
C---------------------------------------------------------------------------------------|

-------------------|------------------|
-------------------|------------------|
-------------------|------------------|
9-9-10-10-12-12-14-|-9-9-12-12-9-9-12-|
7-7-8--8--10-10-12-|-7-7-10-10-7-7-10-|
-------------------|------------------|

Bridge
D------------------------x4|-----------------------x2|
A--------------------------|-------------------------|
F--------------------------|-------------------------|
C--------------------------|-------------------------|
G--------------------------|-------------------------|
C-2-0-2-0-2-5-2-0-2-5-2-0-3|-2-0-2-5-2-0-2-3-2-0-2-0-|

Chorus                                                                                    
D---------------------------------------------------------------------------------------|
A---------------------------------------------------------------------------------------|
F---------------------------------------------------------------------------------------|
C-7-7-7-7-7-7-7-7-7-7-7-7-7-7-7-5-5-5-5-5-5-5-5-9-9-10-10-7-7-7-7-7-7-7-7-7-7-7-7-7-7-7-|
G-5-5-5-5-5-5-5-5-5-5-5-5-5-5-5-3-5-5-5-5-5-5-5-7-9-8--8--5-5-5-5-5-5-5-5-5-5-5-5-5-5-5-|
C---------------------------------------------------------------------------------------|

-------------------|------------------|
-------------------|------------------|
-------------------|------------------|
9-9-10-10-12-12-14-|-9-9-12-12-9-9-12-|
7-7-8--8--10-10-12-|-7-7-10-10-7-7-10-|
-------------------|------------------|

Ending
D------------------------x4|-----------------------x2|
A--------------------------|-------------------------|
F--------------------------|-------------------------|
C--------------------------|-------------------------|
G--------------------------|-------------------------|
C-2-0-2-0-2-5-2-0-2-5-2-0-3|-2-0-2-5-2-0-2-3-2-0-2-0-|

D-----------------|
A-----------------|
F-----------------|
C-5-5-5-0-5-5-5-2-|
G-5-5-5-0-5-5-5-2-|
C-5-5-5-0-5-5-5-2-|
            
Submit corrections

comments powered by Disqus
↑ Back to top | 36 Crazyfists Tabs for We Gave It Hell. Lyrics for acoustic guitar and electric guitar. 1 Tablatures and chords are parodies/interpretations of the original songs. You may use it for private study, scholarship, research or language learning purposes only