>
 >
We Gave It Hell

We Gave It Hell Guitar Tabs

36 Crazyfists - We Gave It Hell chords, tabs, tablatures, lyrics

Guitar lessons | Add/correct | Request | Top 50 tabs Artists:  A B C D E F G H I J K L M N O P Q R S T U V W X Y Z 0-9

We Gave It Hell Guitar Tabs – 36 Crazyfists

CD, Sheet music, Poster

Do you like We Gave It Hell? Share with your friends now
TabsTabs v2Tabs v3
36 Crazyfists
The Tide And Its Takers
Drop C -CGCFAD

-Intro-
Gtr 1,2- Distortion
D|-----------------------------------------------------------------------|
A|-----------------------------------------------------------------------|
F|-----------------------------------------------------------------------|
C|-5-5-5-2--------5-5-5-2--------5-5-5-0--------5-5-5------------5-5-5-2-|
G|-5-5-5-2--------5-5-5-2--------5-5-5-0--------5-5-5--7*~~-/12\-5-5-5-2-|
C|-5-5-5-2--------5-5-5-2--------5-5-5-0--------5-5-5-------/12\-5-5-5-2-|
"Voice reminds!  Of where we are... In a cement city, ARRIVE!!!"

-Verse-
D|----------------------------------------------------------|
A|----------------------------------------------------------|
F|----------------------------------------------------------|
C|---------------------5-5-5-2----------------------5-5-5-2-|
G|---------------------5-5-5-2----------------------5-5-5-2-|
C|-2-0-2-5-2-0-1-2-0-2-5-5-5-2--2-0-2-5-2-0-1-2-0-2-5-5-5-2-|
"WE GAVE IT HELL!! And we find ourselves...

D|--------------------------------------------------------|
A|--------------------------------------------------------|
F|--------------------------------------------------------|
C|---------------------5-5-5-2----------------------5-5-5-|
G|---------------------5-5-5-2----------------------5-5-5-|
C|-2-0-2-5-2-0-1-2-0-2-5-5-5-2--2-0-2-5-2-0-1-2-0-2-5-5-5-|
...Coherent and so unclear"

-Pre Chorus-
D|--------------------------------------------------|
A|--------------------------------------------------|
F|----7-----7-----7---------------7-7-----7-7/8-8/9-|
C|-0--x--0--x--0--x--0--6-6-6--0--x-x--0--x-x-x-x-x-|
G|-0--5--0--5--0--5--0--6-6-6--0--5-5--0--5-5/6-6/7-|
C|-0-----0-----0-----0--6-6-6--0-------0------------|
"And I'm lost at sea with guides to spear, lost at sea with
guides to spear"

D|--------------------------------------------------------|
A|--------------------------------------------------------|
F|--------------------------------------------------------|
C|---------------------5-5-5-2----------------------5-5-5-|
G|---------------------5-5-5-2----------------------5-5-5-|
C|-2-0-2-5-2-0-1-2-0-2-5-5-5-2--2-0-2-5-2-0-1-2-0-2-5-5-5-|
"This is the SOUUND!! waves of desperation"

-Chorus-
Gtr 1
D|----------------------------------------------------------|
A|----------------------------------------------------------|
F|-7-7-7-7-7-7-7-7-7-7-7-7-5-5-5-5-5-5-5-5-9-9-9-9/10-10-10-|
C|-x-x-x-x-x-x-x-x-x-x-x-x-x-x-x-x-x-x-x-x-x-x-x-x/x--x--x--|
G|-5-5-5-5-5-5-5-5-5-5-5-5-3-3-3-3-3-3-3-3-7-7-7-7/8--8--8--|
C|----------------------------------------------------------|
Gtr 2
D|-------------------------------------------------------|
A|-------------------------------------------------------|
F|-------------------------------------------------------|
C|-5-5-5-5-5-5-5-5-5-5-5-5-3-3-3-3-3-3-3-3-2-2-2-2-3-3-3-|
G|-5-5-5-5-5-5-5-5-5-5-5-5-3-3-3-3-3-3-3-3-2-2-2-2-3-3-3-|
C|-5-5-5-5-5-5-5-5-5-5-5-5-3-3-3-3-3-3-3-3-2-2-2-2-3-3-3-|
"Ones of reminder and things that just won't heal...

Gtr 1
D|----------------------------------------------------|
A|----------------------------------------------------|
F|-7-7-7-7-7-7-7-7-7-7-7-7-9-9-9/10-10-10/12-12-12/14-|
C|-x-x-x-x-x-x-x-x-x-x-x-x-x-x-x/x--x---x/x--x---x/x--|
G|-5-5-5-5-5-5-5-5-5-5-5-5-7-7-7/8--8---8/10-10-10/12-|
C|----------------------------------------------------|
Gtr 2
D|---------------------------------------------|
A|---------------------------------------------|
F|---------------------------------------------|
C|-5-5-5-5-5-5-5-5-5-5-5-5-2-2-2/3-3-3/5-5-5/7-|
G|-5-5-5-5-5-5-5-5-5-5-5-5-2-2-2/3-3-3/5-5-5/7-|
C|-5-5-5-5-5-5-5-5-5-5-5-5-2-2-2/3-3-3/5-5-5/7-|
...And in time we will step away from all of this...

Gtr 1
D|-------------------------------------------|
A|-------------------------------------------|
F|-10p9p7-10p9p7-10p9p7-10p9p7-10p9p7-10p9p7-|
C|-------------------------------------------|
G|-------------------------------------------|
C|-------------------------------------------|
Gtr 2
D|---------------------------------|
A|---------------------------------|
F|---------------------------------|
C|-5---5---5---5---5-5-5-5-5-5-5-5-|
G|-5---5---5---5---5-5-5-5-5-5-5-5-|
C|-5---5---5---5---5-5-5-5-5-5-5-5-|
...'Cause it's the hardest and the longest...

Gtr 1
D|--------------------------------------------------|
A|--------------------------------------------------|
F|-7-7-7-7-7-7-7-7-7-7--10p9p7-10p9p7-10p9p7-10p9p7-|
C|-x-x-x-x-x-x-x-x-x-x------------------------------|
G|-5-5-5-5-5-5-5-5-5-5------------------------------|
C|--------------------------------------------------|
Gtr 2
D|-------------------------------------|
A|-------------------------------------|
F|-------------------------------------|
C|-5-5-5-5-5-5-5-5-5-5-5-5-5-5-5-5-5-5-|
G|-5-5-5-5-5-5-5-5-5-5-5-5-5-5-5-5-5-5-|
C|-5-5-5-5-5-5-5-5-5-5-5-5-5-5-5-5-5-5-|
...And in time we will make this...

Gtr 1
D|------------------------------------------------|
A|------------------------------------------------|
F|-9-9-9--11-11-11--9-9-9--11-11-11-11-11-12-12-9-|
C|-x-x-x--x--x--x---x-x-x--x--x--x--x--x--x--x--x-|
G|-7-7-7--9--9--9---7-7-7--9--9--9--9--9--10-10-7-|
C|------------------------------------------------|
Gtr 2
D|------------------------------------|
A|------------------------------------|
F|------------------------------------|
C|-2-2-2--4-4-4--2-2-2--4-4-4-4-4-5-2-|
G|-2-2-2--4-4-4--2-2-2--4-4-4-4-4-5-2-|
C|-2-2-2--4-4-4--2-2-2--4-4-4-4-4-5-2-|
...all just disaaappear (DISAPPEAR!!!)

-Verse-
D|----------------------------------------------------------|
A|----------------------------------------------------------|
F|----------------------------------------------------------|
C|---------------------5-5-5-2----------------------5-5-5-2-|
G|---------------------5-5-5-2----------------------5-5-5-2-|
C|-2-0-2-5-2-0-1-2-0-2-5-5-5-2--2-0-2-5-2-0-1-2-0-2-5-5-5-2-|
"LET THIS DIG IN!! 'Cause I can see the shore...

D|--------------------------------------------------------|
A|--------------------------------------------------------|
F|--------------------------------------------------------|
C|---------------------5-5-5-2----------------------5-5-5-|
G|---------------------5-5-5-2----------------------5-5-5-|
C|-2-0-2-5-2-0-1-2-0-2-5-5-5-2--2-0-2-5-2-0-1-2-0-2-5-5-5-|
...I think I can make it, crash through the door"

-Pre Chorus-
D|--------------------------------------------------|
A|--------------------------------------------------|
F|----7-----7-----7---------------7-7-----7-7/8-----|
C|-0--x--0--x--0--x--0--6-6-6--0--x-x--0--x-x-x-----|
G|-0--5--0--5--0--5--0--6-6-6--0--5-5--0--5-5/6-7*~-|
C|-0-----0-----0-----0--6-6-6--0-------0------------|
"And I'm lost at sea with guides to spear, lost at sea with
guides to spear"

D|--------------------------------------------------------|
A|--------------------------------------------------------|
F|--------------------------------------------------------|
C|---------------------5-5-5-2----------------------5-5-5-|
G|---------------------5-5-5-2----------------------5-5-5-|
C|-2-0-2-5-2-0-1-2-0-2-5-5-5-2--2-0-2-5-2-0-1-2-0-2-5-5-5-|
"This is the SOUUND!! waves of desperation"

-Chorus-
Gtr 1
D|----------------------------------------------------------|
A|----------------------------------------------------------|
F|-7-7-7-7-7-7-7-7-7-7-7-7-5-5-5-5-5-5-5-5-9-9-9-9/10-10-10-|
C|-x-x-x-x-x-x-x-x-x-x-x-x-x-x-x-x-x-x-x-x-x-x-x-x/x--x--x--|
G|-5-5-5-5-5-5-5-5-5-5-5-5-3-3-3-3-3-3-3-3-7-7-7-7/8--8--8--|
C|----------------------------------------------------------|
Gtr 2
D|-------------------------------------------------------|
A|-------------------------------------------------------|
F|-------------------------------------------------------|
C|-5-5-5-5-5-5-5-5-5-5-5-5-3-3-3-3-3-3-3-3-2-2-2-2-3-3-3-|
G|-5-5-5-5-5-5-5-5-5-5-5-5-3-3-3-3-3-3-3-3-2-2-2-2-3-3-3-|
C|-5-5-5-5-5-5-5-5-5-5-5-5-3-3-3-3-3-3-3-3-2-2-2-2-3-3-3-|
"Ones of reminder and things that just won't heal...

Gtr 1
D|----------------------------------------------------|
A|----------------------------------------------------|
F|-7-7-7-7-7-7-7-7-7-7-7-7-9-9-9/10-10-10/12-12-12/14-|
C|-x-x-x-x-x-x-x-x-x-x-x-x-x-x-x/x--x---x/x--x---x/x--|
G|-5-5-5-5-5-5-5-5-5-5-5-5-7-7-7/8--8---8/10-10-10/12-|
C|----------------------------------------------------|
Gtr 2
D|---------------------------------------------|
A|---------------------------------------------|
F|---------------------------------------------|
C|-5-5-5-5-5-5-5-5-5-5-5-5-2-2-2/3-3-3/5-5-5/7-|
G|-5-5-5-5-5-5-5-5-5-5-5-5-2-2-2/3-3-3/5-5-5/7-|
C|-5-5-5-5-5-5-5-5-5-5-5-5-2-2-2/3-3-3/5-5-5/7-|
...And in time we will step away from all of this...

Gtr 1
D|-------------------------------------------|
A|-------------------------------------------|
F|-10p9p7-10p9p7-10p9p7-10p9p7-10p9p7-10p9p7-|
C|-------------------------------------------|
G|-------------------------------------------|
C|-------------------------------------------|
Gtr 2
D|---------------------------------|
A|---------------------------------|
F|---------------------------------|
C|-5---5---5---5---5-5-5-5-5-5-5-5-|
G|-5---5---5---5---5-5-5-5-5-5-5-5-|
C|-5---5---5---5---5-5-5-5-5-5-5-5-|
...'Cause it's the hardest and the longest...

Gtr 1
D|--------------------------------------------------|
A|--------------------------------------------------|
F|-7-7-7-7-7-7-7-7-7-7--10p9p7-10p9p7-10p9p7-10p9p7-|
C|-x-x-x-x-x-x-x-x-x-x------------------------------|
G|-5-5-5-5-5-5-5-5-5-5------------------------------|
C|--------------------------------------------------|
Gtr 2
D|-------------------------------------|
A|-------------------------------------|
F|-------------------------------------|
C|-5-5-5-5-5-5-5-5-5-5-5-5-5-5-5-5-5-5-|
G|-5-5-5-5-5-5-5-5-5-5-5-5-5-5-5-5-5-5-|
C|-5-5-5-5-5-5-5-5-5-5-5-5-5-5-5-5-5-5-|
...And in time we will make this...

Gtr 1
D|-------------------------------------------------|
A|-------------------------------------------------|
F|-9-9-9--11-11-11--9-9-9--11-11-11-11-11-11-11-11-|
C|-x-x-x--x--x--x---x-x-x--x--x--x--x--x--x--x--x--|
G|-7-7-7--9--9--9---7-7-7--9--9--9--9--9--9--9--9--|
C|-------------------------------------------------|
Gtr 2
D|------------------------------------|
A|------------------------------------|
F|------------------------------------|
C|-2-2-2--4-4-4--2-2-2--4-4-4-4-4-4-4-|
G|-2-2-2--4-4-4--2-2-2--4-4-4-4-4-4-4-|
C|-2-2-2--4-4-4--2-2-2--4-4-4-4-4-4-4-|
...all just disappear"

-Breakdown-
Gtr 1 (turn treble vol. off)
D|-------------------|
A|-------------------|
F|-------------------|
C|-------------------|
G|-------------------|
C|-2-0-2-5-2-0-1-2-0-|

Gtr 1,2 (treble vol. on)
D|-------------------------------------------------------------------|
A|-------------------------------------------------------------------|
F|-------------------------------------------------------------------|
C|-------------------------------------------------------------------|
G|-------------------------------------------------------------------|
C|-2b~~--2-0-2-5-2-0-1-2-0-2-5-5-5-2b~~--2-0-2-5-2-0-1-2-0-2-5-5-5-2-|
"OH!!!    WE'LL MAKE THIS DISAPPEAR!!  FIGHT ON!!!
D|-------------------------------------------------------------|
A|-------------------------------------------------------------|
F|-------------------------------------------------------------|
C|-------------------------------------------------------------|
G|-------------------------------------------------------------|
C|-2-0-2-5-2-0-1-2-0-2-5-5-5-2b~~--2-0-2-5-2-0-1-2-0-2-5-5-5-2-|
...WE'LL MAKE THIS DISAPPEAR!!  FIGHT ON!!!"

D|------------------------------------------------------------------|
A|------------------------------------------------------------------|
F|------------------------------------------------------------------|
C|----------------------x--x-----------------------------x--x-------|
G|----------------------x--x-5/7-7-----------------------x--x-5/7-7-|
C|-2-0-2-5~~--2-0-2-3~~-x--x--------2-0-2-5~~--2-0-2-3~~-x--x-------|

D|-------------------------------------------------------------|
A|-------------------------------------------------------------|
F|-------------------------------------------------------------|
C|-------5~~--------3~~----------------5~~--------3~~----------|
G|-2-0-2-5~~--2-0-2-3~~--2-3-5-3-2-0-2-5~~--2-0-2-3~~--2-3-5-3-|
C|-2-0-2-5~~--2-0-2-3~~--2-3-5-3-2-0-2-5~~--2-0-2-3~~--2-3-5-3-|
   - - -      - - -      - - - - - - -      - - -      - - - -
"(We! Will) WE'LL MAKE THIS DISAPPEAR!  (We! Will) WE'LL MAKE THIS DISAPPEAR!
D|-------------------------------------------------------------|
A|-------------------------------------------------------------|
F|-------------------------------------------------------------|
C|-------5~~--------3~~----------------5~~--------3/7-7-7-12\\-|
G|-2-0-2-5~~--2-0-2-3~~--2-3-5-3-2-0-2-5~~--2-0-2-3/7-7-7-12\\-|
C|-2-0-2-5~~--2-0-2-3~~--2-3-5-3-2-0-2-5~~--2-0-2-3/7-7-7-12\\-|
   - - -      - - -      - - - - - - -      - - -
(We! Will) WE'LL MAKE THIS DISAPPEAR!!!"

Gtr 1 (low treble vol.)
D|----------------------------------------------------------|
A|----------------------------------------------------------|
F|-7-7-7-7-7-7-7-7-7-7-7-7-5-5-5-5-5-5-5-5-9-9-9-9/10-10-10-|
C|-x-x-x-x-x-x-x-x-x-x-x-x-x-x-x-x-x-x-x-x-x-x-x-x/x--x--x--|
G|-5-5-5-5-5-5-5-5-5-5-5-5-3-3-3-3-3-3-3-3-7-7-7-7/8--8--8--|
C|----------------------------------------------------------|
"Ones of reminder and things that just won't heal...

D|-------------------------|
A|-------------------------|
F|-7-7-7-7-7-7-7-7-7-7-7-7-|
C|-x-x-x-x-x-x-x-x-x-x-x-x-|
G|-5-5-5-5-5-5-5-5-5-5-5-5-|
C|-------------------------|
...And in time we will...

Gtr 1,2 (treble vol. up)
D|-------------------------------------------------|
A|-------------------------------------------------|
F|-9-9-9--11-11-11--9-9-9--11-11-11-11-11-11-11-11-|
C|-x-x-x--x--x--x---x-x-x--x--x--x--x--x--x--x--x--|
G|-7-7-7--9--9--9---7-7-7--9--9--9--9--9--9--9--9--|
C|-------------------------------------------------|
Gtr 2
D|------------------------------------|
A|------------------------------------|
F|------------------------------------|
C|-2-2-2--4-4-4--2-2-2--4-4-4-4-4-4-4-|
G|-2-2-2--4-4-4--2-2-2--4-4-4-4-4-4-4-|
C|-2-2-2--4-4-4--2-2-2--4-4-4-4-4-4-4-|
...STEP AWAY FROM ALL OF.. THIIIIISS!!!"

-Chorus-
Gtr 1
D|----------------------------------------------------------|
A|----------------------------------------------------------|
F|-7-7-7-7-7-7-7-7-7-7-7-7-5-5-5-5-5-5-5-5-9-9-9-9/10-10-10-|
C|-x-x-x-x-x-x-x-x-x-x-x-x-x-x-x-x-x-x-x-x-x-x-x-x/x--x--x--|
G|-5-5-5-5-5-5-5-5-5-5-5-5-3-3-3-3-3-3-3-3-7-7-7-7/8--8--8--|
C|----------------------------------------------------------|
Gtr 2
D|-------------------------------------------------------|
A|-------------------------------------------------------|
F|-------------------------------------------------------|
C|-5-5-5-5-5-5-5-5-5-5-5-5-3-3-3-3-3-3-3-3-2-2-2-2-3-3-3-|
G|-5-5-5-5-5-5-5-5-5-5-5-5-3-3-3-3-3-3-3-3-2-2-2-2-3-3-3-|
C|-5-5-5-5-5-5-5-5-5-5-5-5-3-3-3-3-3-3-3-3-2-2-2-2-3-3-3-|
"Ones of reminder and things that just won't heal...

Gtr 1
D|----------------------------------------------------|
A|----------------------------------------------------|
F|-7-7-7-7-7-7-7-7-7-7-7-7-9-9-9/10-10-10/12-12-12/14-|
C|-x-x-x-x-x-x-x-x-x-x-x-x-x-x-x/x--x---x/x--x---x/x--|
G|-5-5-5-5-5-5-5-5-5-5-5-5-7-7-7/8--8---8/10-10-10/12-|
C|----------------------------------------------------|
Gtr 2
D|---------------------------------------------|
A|---------------------------------------------|
F|---------------------------------------------|
C|-5-5-5-5-5-5-5-5-5-5-5-5-2-2-2/3-3-3/5-5-5/7-|
G|-5-5-5-5-5-5-5-5-5-5-5-5-2-2-2/3-3-3/5-5-5/7-|
C|-5-5-5-5-5-5-5-5-5-5-5-5-2-2-2/3-3-3/5-5-5/7-|
...And in time we will step away from all of this...

Gtr 1
D|-------------------------------------------|
A|-------------------------------------------|
F|-10p9p7-10p9p7-10p9p7-10p9p7-10p9p7-10p9p7-|
C|-------------------------------------------|
G|-------------------------------------------|
C|-------------------------------------------|
Gtr 2
D|---------------------------------|
A|---------------------------------|
F|---------------------------------|
C|-5---5---5---5---5-5-5-5-5-5-5-5-|
G|-5---5---5---5---5-5-5-5-5-5-5-5-|
C|-5---5---5---5---5-5-5-5-5-5-5-5-|
...'Cause it's the hardest and the longest...

Gtr 1
D|--------------------------------------------------|
A|--------------------------------------------------|
F|-7-7-7-7-7-7-7-7-7-7--10p9p7-10p9p7-10p9p7-10p9p7-|
C|-x-x-x-x-x-x-x-x-x-x------------------------------|
G|-5-5-5-5-5-5-5-5-5-5------------------------------|
C|--------------------------------------------------|
Gtr 2
D|-------------------------------------|
A|-------------------------------------|
F|-------------------------------------|
C|-5-5-5-5-5-5-5-5-5-5-5-5-5-5-5-5-5-5-|
G|-5-5-5-5-5-5-5-5-5-5-5-5-5-5-5-5-5-5-|
C|-5-5-5-5-5-5-5-5-5-5-5-5-5-5-5-5-5-5-|
...And in time we will make this...

Gtr 1
D|-------------------------------------------------|
A|-------------------------------------------------|
F|-9-9-9--11-11-11--9-9-9--11-11-11-11-11-11-11-11-|
C|-x-x-x--x--x--x---x-x-x--x--x--x--x--x--x--x--x--|
G|-7-7-7--9--9--9---7-7-7--9--9--9--9--9--9--9--9--|
C|-------------------------------------------------|
Gtr 2
D|------------------------------------|
A|------------------------------------|
F|------------------------------------|
C|-2-2-2--4-4-4--2-2-2--4-4-4-4-4-4-4-|
G|-2-2-2--4-4-4--2-2-2--4-4-4-4-4-4-4-|
C|-2-2-2--4-4-4--2-2-2--4-4-4-4-4-4-4-|
...all just disappear"

-Outro-
D|----------------------------------------------------------|
A|----------------------------------------------------------|
F|----------------------------------------------------------|
C|----------------------------------------------------------|
G|----------------------------------------------------------|
C|-2-0-2-5-2-0-1-2-0-2-5-5-5-2--2-0-2-5-2-0-1-2-0-2-5-5-5-2-|
"WE'LL MAKE THIS DISAPPEAR! FIGHT ON!!! WE'LL MAKE THIS DISAPPEAR!

D|--------------------------------------------------------|
A|--------------------------------------------------------|
F|--------------------------------------------------------|
C|--------------------------------------------------------|
G|--------------------------------------------------------|
C|-2-0-2-5-2-0-1-2-0-2-5-5-5-2--2-0-2-5-2-0-1-2-0-2-5-5-5-|
...FIGHT ON!!

D||------------------------------------------------------------||---------|
A||o----------------------------------------------------------o||---------|
F||------------------------------------------------------------||---------|
C||--2-0-2-3-2-0-1-2-0-2-5-5-5-2--2-0-2-3-2-0-1-2-0-2-5-5-5-0--||-5-5-5-2-|
G||o-2-0-2-3-2-0-1-2-0-2-5-5-5-2--2-0-2-3-2-0-1-2-0-2-5-5-5-0-o||-5-5-5-2-|
C||--2-0-2-3-2-0-1-2-0-2-5-5-5-2--2-0-2-3-2-0-1-2-0-2-5-5-5-0--||-5-5-5-2-|
"With the weight of the world! I was born for this!"





Comments


Popular 36 Crazyfists tabs & chords
Circle The Drain Bass Tabs
Eightminutesupsidedown Bass Tabs
Turns To Ashes Bass Tabs
At The End Of August Tabs
Destroy The Map Intro Tabs
Only A Year Or So Intro Tabs
The Heart And The Shape 2 Tabs
Turns To Ashes 1 Tabs
Two Months From A Year 1 Tabs
Waiting On A War Tabs


Song lyrics



↑ Back to top | Tablatures and chords are parodies/interpretations of the original songs. You may use it for private study, scholarship, research or language learning purposes only
© 2014 AZChords.com Contact us | Privacy policy | DMCA | Add/correct tabs | Request tabs | Top 50 tabs