» » »

The Heart And The Shape Bass tabs (ver.1)

Artists:  A B C D E F G H I J K L M N O P Q R S T U V W X Y Z # 

The Heart And The Shape Bass tabs (ver.1)

36 Crazy Fists
Rating:
0/5 (0 votes)

Tabs too difficult? Try these video lessons and learn fast.
                36 Crazyfists
A Snow Capped Romance

Tuning C G C F

This album hasn’t even been released yet but if you want to hear the song ‘The heart and The shape’ go to roadrunnerrecords.com and download it, I’ll assure you that you will not be disappointed! 

Intro: x2 (chorus)
 
|----------------------------------------------------------------|
|----------------------------------------------------------------|
|----------------------------------------------------------------|
|--0--3-2-0-2--0--3-2-0-2-2-0----8-8-8-8-8-8-8-8-7-7-7-7-7-7-7-7-|

 
Verse: x3
|----------------------------------|
|----------------------------------|
|----------------------------------|
|---8\--------0----0--0-0-0--------| 
                       

Verse fill: x1 
|-----------------------------------------|
|-----------------------------------------|
|-----8h7-7------8h7-7--------------------|
|---8----------7--------------------------|

verse: x3

Verse fill: x1

Pre-chorus: x2

|----------------------------------------------------------------|
|--0—-3-2-0-2—-0—-3-2-0-2-2-0----8-8-8-8-8-8-8-8-7-7-7-7-7-7-7-7-|
|----------------------------------------------------------------|
|----------------------------------------------------------------|

Chorus: same as intro: x2


Post-chorus:

X1 
|-------------------------------------|
|-------------------------------------|
|-------------------------------------|
|---8--0-0-0-8--0-0-0----7--8---------|

X1 
|-------------------------------------|
|-------------------------------------|
|-------------------------------------|
|---8--0-0-0-8--0-0-0----3--5---------|

X1
|-------------------------------------|
|---8--0-0-0-8--0-0-0----7--8---------|
|-------------------------------------|
|-------------------------------------|

X1
|-------------------------------------|
|-------------------------------------|
|-------------------------------------|
|---8--0-0-0-8--0-0-0----3--5---------|

Verse: x3

Verse fill: x1

Verse: x3

Verse fill: x1

Pre-chorus: x2

Chorus: x2

Post-chorus: 
 
Breakdown:

X1 
|----------------------------------------|
|----------------------------------------|
|----------------------------------------|
|---8\--0---8\---0-----0-/5--------------|

X3 
|----------------------------------------|
|----------------------------------------|
|----------------------------------------|
|---8\--0---8\---0-----0—3/5-------------|  

 

X1 
|--------------------------------------|
|--------------------------------------|
|--------------------------------------|
|---8\---0---8\---0-----0--7-8---------|

X3 
|-----------------------------------------|
|-----------------------------------------|
|-----------------------------------------|
|---8\---0---8\---0-----0--3-5------------| 

Interlude:
  
|--------------------------------------|
|--------------------------------------|
|-------------------------------.------|
|---0~-----8~---7~---0~------8~-7------|


 Chorus: x2

Post-chorus: 

Breakdown (all, repeat as before)

Last notes (outro): x1 

 
|-----------------------------------------|
|-----------------------------------------|
|-----------------------------------------|
|---8---0~--------------------------------|

 
Thank you please rate this tab
            
Tabs too difficult? Try these video lessons and learn fast.


comments powered by Disqus
↑ Back to top | Tablatures and chords are parodies/interpretations of the original songs. You may use it for private study, scholarship, research or language learning purposes only