» » »

The Heart And The Shape Tabs (ver.2)

Artists:  A B C D E F G H I J K L M N O P Q R S T U V W X Y Z # 

The Heart And The Shape Tabs (ver.2)

36 Crazy Fists
Rating:
0/5 (0 votes)

Hard to play? Try these video lessons and learn fast.
                This Song kicks ass. The tab isn't entirely correct, but it will get you there. The tuning is Drop C. Have fun...

Intro
-|-------------------------------------|--------------------------------------
-|-------------------------------------|--------------------------------------
-|---10-9-9-10-9-9-9---10-9-9---10-9-9-|--------------------------------------
-|-0-----------------8--------7--------|--------------------------------------
-|-------------------------------------|--------------------------------------
-|-------------------------------------|--------------------------------------
                                                                              
Chorus
-|---------------------------------------------------|----------------------------
-|---------------------------------------------------|----------------------------
-|-------------------------10-10-10-10-10-10-9-9-9-9-|----------------------------
-|---------------------------------------------------|----------------------------
-|-0-3-2-0-2-0-3-2-0-2-0-0-8--8--8--8--8--8\-7-7-7-7-|----------------------------
-|-0-3-2-0-2-0-3-2-0-2-0-0---------------------------|----------------------------
                                                                              
Verse (There is a variation in the strumming of the palmmutes as is there in the pinchharmonic at the end)
   3*            1*
-|-------------|--------------|-----------------------------------------------
-|-------------|--------------|-----------------------------------------------
-|-------------|---10---10-9^-|-----------------------------------------------
-|-------------|--------------|-----------------------------------------------
-|-8-0-0-0-0-0-|-8----8-------|-----------------------------------------------
-|-8-0-0-0-0-0-|-8----8-------|-----------------------------------------------
pm   . . . . . 
                                                                              
Bridge
2-2-0-0-3-2-0-0-7-8-3-2-0-0-3-2-0-0-2-3---------------------3-2-0-0-3-2-0-0-2-3
3-2-0-0-3-2-0-0-7-8-3-2-0-0-3-2-0-0-2-3-3-2-0-0-3-2-0-0-7-8-3-2-0-0-3-2-0-0-2-3
                                                                              
Rif (the pinchharmonics are different every time)
  4*            4*
-|-------------|-------------|------------------------------------------------
-|-------------|-------------|------------------------------------------------
-|-------------|-------------|------------------------------------------------
-|-------------|-------------|------------------------------------------------
-|-8-0-8-0-7-8-|-8^0-8^0-7-8-|------------------------------------------------
-|-8-0-8-0-7-8-|---0---0-7-8-|------------------------------------------------
                                                                              

 
End Rif
-|----------------------------------------------------------------------------
-|----------------------------------------------------------------------------
-|----------------------------------------------------------------------------
-|----------------------------------------------------------------------------
-|-8^0-8^0-8-0----------------------------------------------------------------
-|---0---0-8-0----------------------------------------------------------------
                                                                              
Playing order:

2 Intro
2 Chorus
8 Verse
2 Intro
2 Chorus
Bridge
8 Verse
2 Intro
2 Chorus
Bridge
Rif
2 Intro
2 Chorus
4 Bridge
Rif, 8time play End Rif
            
Hard to play? Try these video lessons and learn fast. | Correct




comments powered by Disqus
↑ Back to top | Tablatures and chords are parodies/interpretations of the original songs. You may use it for private study, scholarship, research or language learning purposes only