>
 >
The Heart & The Shape

The Heart & The Shape Guitar Tabs

36 Crazy Fists - The Heart & The Shape chords, tabs, tablatures, lyrics

Guitar lessons | Add/correct | Request | Top 50 tabs Artists:  A B C D E F G H I J K L M N O P Q R S T U V W X Y Z 0-9

The Heart & The Shape Guitar Tabs – 36 Crazy Fists

CD, Sheet music, Poster

Do you like The Heart & The Shape? Share with your friends now
TabsTabs v2
Tuning:  Drop C (C G C F A D)

Great new song off 36 Crazyfists latest album due out January 20th.  I hope 
the rest of the stuff on the album is like this.  If you haven't heard it, 

Since I absolutely HATE whammy bars and tremolo systems, I do not 
own a guitar with one and I'm not going to fake like I know what notes 
he whammies.  You're just going to have to figure those out yourself.

Notation Key:

v - Downstroke
^ - Upstroke
h - Hammer On
p - Pull Off
~ - Let Ring
/ - Slide Up
\ - Slide Down
x - Muted String
p.m. - Palm Mute


Intro:

Speed altering effect at the beginning (sounds like the Time setting on a delay pedal was turned up real fast)

D|---------------------------------------------------------||
A|---------------------------------------------------------||
F|----------10p9-9--9--10p9-9--------10p9-9------10p9-9----||
C|---0~~~--------------------------8~~~--------7~~~--------||
G|---------------------------------------------------------||
C|---------------------------------------------------------|| x2

If you absolutely want the effect at the beginning, fake it with this:

D|---------------------------------------------------------||
A|---------------------------------------------------------||
F|----------10p9-9--9--10p9-9--------10p9-9------10p9-9----||
C|------0~~~-----------------------8~~~--------7~~~--------||
G|----0/5--------------------------------------------------||
C|---------------------------------------------------------|| x2

Intro continued:

D|--------------------------------------------------------------------||
A|---------------------------*(whammy note)---------------------------||
F|---------------------------------10-10---10-10-10-1010-10-10-10p9---||
C|---0--3-2-0-2--0-3-2-0-2-2-0-----8--8----8--8--8--8-7--7--7--7------||
G|---0--3-2-0-2--0-3-2-0-2-2-0-----8--8----8--8--8--8-7--7--7--7------||
C|---0--3-2-0-2--0-3-2-0-2-2-0-----8--8----8--8--8--8-7--7--7--7------|| x2

1st Verse:
     V                V    V  V ^ V (uses different picking patterns
                                     this is just one of them)
D|-----------------------------------------||
A|-----------------------------------------||
F|-----------------------------------------||
C|---8\---------------0----0--0-0-0--------||
G|---8\---------------0----0--0-0-0--------||
C|---8\---------------0----0--0-0-0--------|| x3
                      p.m. .  . . .

D|-----------------------------------------||
A|-----------------------------------------||
F|--------10---------10---*(whammy note)---||
C|---8----------7--------------------------||
G|---8----------7--------------------------||
C|---8----------7--------------------------||

     V                V    V  V ^ V
D|-----------------------------------------||
A|-----------------------------------------||
F|-----------------------------------------||
C|---8\---------------0----0--0-0-0--------||
G|---8\---------------0----0--0-0-0--------||
C|---8\---------------0----0--0-0-0--------|| x3
                      p.m. .  . . .


D|-----------------------------------------||
A|-----------------------------------------||
F|--------10---------10---*(whammy note)---||
C|---8----------7--------------------------||
G|---8----------7--------------------------||
C|---8----------7--------------------------||


Chorus (same as intro):

D|---------------------------------------------------------||
A|---------------------------------------------------------||
F|----------10p9-9--9--10p9-9--------10p9-9------10p9-9----||
C|---0~~~--------------------------8~~~--------7~~~--------||
G|---------------------------------------------------------||
C|---------------------------------------------------------|| x2

D|--------------------------------------------------------------------||
A|---------------------------*(whammy note)---------------------------||
F|---------------------------------10-10---10-10-10-1010-10-10-10p9---||
C|---0--3-2-0-2--0-3-2-0-2-2-0-----8--8----8--8--8--8-7--7--7--7------||
G|---0--3-2-0-2--0-3-2-0-2-2-0-----8--8----8--8--8--8-7--7--7--7------||
C|---0--3-2-0-2--0-3-2-0-2-2-0-----8--8----8--8--8--8-7--7--7--7------|| x2


Pre-verse part:

D|-----------------------------------------||
A|-----------------------------------------||
F|-----------------------------------------||
C|---8--0-0-0-8--0-0-0----7--8-------------||
G|---8--0-0-0-8--0-0-0----7--8-------------||
C|---8--0-0-0-8--0-0-0----7--8-------------||

D|-----------------------------------------||
A|-----------------------------------------||
F|-----------------------------------------||
C|---8--0-0-0-8--0-0-0----3--5-------------||
G|---8--0-0-0-8--0-0-0----3--5-------------||
C|---8--0-0-0-8--0-0-0----3--5-------------||

D|-----------------------------------------||
A|-----------------------------------------||
F|-----------------------------------------||
C|------------------------7--8-------------||
G|------------------------7--8-------------||
C|---8--0-0-0-8--0-0-0----7--8-------------||

D|-----------------------------------------||
A|-----------------------------------------||
F|-----------------------------------------||
C|---8--0-0-0-8--0-0-0----3--5-------------||
G|---8--0-0-0-8--0-0-0----3--5-------------||
C|---8--0-0-0-8--0-0-0----3--5-------------||


2nd Verse (play the same as the first)

2nd Chorus (same as the first)

Play the Pre-verse part again

Breakdown:

D|-----------------------------------------||
A|-----------------------------------------||
F|--------------------------7--------------||
C|---8\--0---8\----0-----0--7--------------||
G|---8\--0---8\----0-----0--5--------------||
C|---8\--0---8\----0-----0--5--------------||

D|-----------------------------------------||
A|-----------------------------------------||
F|-----------------------------------------||
C|---8\--0---8\----0-----0--3-5------------||
G|---8\--0---8\----0-----0--3-5------------||
C|---8\--0---8\----0-----0--3-5------------|| x2 (play the whole thing twice)

Breakdown continued:

D|-----------------------------------------||
A|-----------------------------------------||
F|----*-------*(whammy notes)--------------||
C|-------0---------0-----0--7-8------------||
G|-------0---------0-----0--7-8------------||
C|-------0---------0-----0--7-8------------||

D|-----------------------------------------||
A|-----------------------------------------||
F|----*-------*(more whammies)-------------||
C|-------0---------0-----0--3-5------------||
G|-------0---------0-----0--3-5------------||
C|-------0---------0-----0--3-5------------|| x2 (play this whole part twice)


3rd Chorus (same as the first two)

Play the Pre-verse part again

Then play the entire breakdown again

Outro:

D|-----------------------------------------||
A|-----------------------------------------||
F|-----------------------------------------||
C|---8-------0~~~--------------------------||
G|---8-------0~~~--------------------------||
C|---8-------0~~~--------------------------||

-Fin-





Comments


Popular 36 Crazy Fists tabs & chords
All I Am Bass Tabs
Bury Me Where I Fall Bass Tabs
Dislocate Bass Tabs
Turns To Ashes Bass Tabs
Turns To Ashes 1 Bass Tabs
At The End Of August Tabs
Left Hand Charity 1 Tabs
One More Word Tabs
Slit Wrist Theory 2 Tabs
The Heart & The Shape 1 Tabs


Song lyrics



↑ Back to top | Tablatures and chords are parodies/interpretations of the original songs. You may use it for private study, scholarship, research or language learning purposes only
© 2014 AZChords.com Contact us | Privacy policy | DMCA | Add/correct tabs | Request tabs | Top 50 tabs