» » »

36 Crazy Fists, Slit Wrist Theory Tabs (ver.1)

Artists:  A B C D E F G H I J K L M N O P Q R S T U V W X Y Z # 

Slit Wrist Theory Tabs (ver.1)

36 Crazy Fists Tabs
Rating:
0/5 (0 votes)
Slit Wrist Theory lessons Tabs too difficult? Try these video lessons and learn fast
                Song - Slit Wrist Theory
Band - 26 Crazyfists
Album - Bitterness the Star

~ = let ring
[~#] = harmonics
[#] = palm mute
/ = slide up
\ = slide down
h = hammer on
p = pull off
b = bend
b# = bend to
FXb = Digtal FX bend
x = muted scratching

1st Verse

[play with Delay FX]

d]--------------------------
a]--------------------------
f]--------------------------
c]---8---7---5---8---7-10---
g]-----6---3-------6------8-
c]-5-----------5------------ x5

d]-------------------------
a]-------------------------
f]-------------------------
c]---8---7---5---8---7-10\-
g]-----6---3-------6-------
c]-5-----------5-----------

d]--------------------------
a]--------------------------
f]--------------------------
c]---8---7---5---8---7-10---
g]-----6---3-------6------8-
c]-5-----------5------------ x2

d]---
a]---
f]---
c]---
g]---
c]-5-

time reference - 0:44/4:00
lyrics - "get the *** out..."

1st Bridge

d]---------------------------------------------------------------
a]---------------------------------------------------------------
f]---------------------------------------------------------------
c]-3h5-5-3-5-5-3h5-3h5-5-3-5-5-3h5-3h5-5-5-3-5-5-3h5-0-1-3-4-3-4-
g]-3h5-5-3-5-5-3h5-3h5-5-3-5-5-3h5-3h5-5-5-3-5-5-3h5-0-1-3-4-3-4-
c]-3h5-5-3-5-5-3h5-3h5-5-3-5-5-3h5-3h5-5-5-3-5-5-3h5-0-1-3-4-3-4- x2

d]-----------
a]-----------
f]-----------
c]-0-1-3-4-3-
g]-0-1-3-4-3-
c]-0-1-3-4-3-

time reference - 1:00/4:00
lyrics - "lace me up..."

1st Chorus

[guitar one]

d]-----------------------------------------
a]-8-8-8-8-8-8-8-8-11-11-11-11-11-11-11-11-
f]-7-7-7-7-7-7-7-7-10-10-10-10-10-10-10-10-
c]-5-5-5-5-5-5-5-5-8--8--8--8--8--8--8--8--
g]-5-5-5-5-5-5-5-5-8--8--8--8--8--8--8--8--
c]-5-5-5-5-5-5-5-5-8--8--8--8--8--8--8--8--

[guitar two]

d]--------------------------------
a]--------------------------------
f]-12-15-14-15-14-15--12-15-17-14-
c]--------------------------------
g]--------------------------------
c]--------------------------------

[both]

d]-------------------------------------------------
a]-------------------------------------------------
f]-------------------------------------------------
c]-13-13-13-13-10-10-10-10-13-13-13-13-8-8-8-8-8p6-
g]-13-13-13-13-10-10-10-10-13-13-13-13-8-8-8-8-8p6-
c]-13-13-13-13-10-10-10-10-13-13-13-13-8-8-8-8-8p6- All x2

time reference - 1:20/4:00

2nd Verse

[play with Delay FX]

d]--------------------------
a]--------------------------
f]--------------------------
c]---8---7---5---8---7-10---
g]-----6---3-------6------8-
c]-5-----------5------------ x2

d]-------------------------
a]-------------------------
f]-------------------------
c]---8---7---5---8---7-10\-
g]-----6---3-------6-------
c]-5-----------5-----------

d]--------------------------
a]--------------------------
f]--------------------------
c]---8---7---5---8---7-10---
g]-----6---3-------6------8-
c]-5-----------5------------ x2

d]---
a]---
f]---
c]---
g]---
c]-5-

time reference - 1:49/4:00
lyrics - "get the *** out..."

1st Bridge

d]---------------------------------------------------------------
a]---------------------------------------------------------------
f]---------------------------------------------------------------
c]-3h5-5-3-5-5-3h5-3h5-5-3-5-5-3h5-3h5-5-5-3-5-5-3h5-0-1-3-4-3-4-
g]-3h5-5-3-5-5-3h5-3h5-5-3-5-5-3h5-3h5-5-5-3-5-5-3h5-0-1-3-4-3-4-
c]-3h5-5-3-5-5-3h5-3h5-5-3-5-5-3h5-3h5-5-5-3-5-5-3h5-0-1-3-4-3-4- x2

d]-----------
a]-----------
f]-----------
c]-0-1-3-4-3-
g]-0-1-3-4-3-
c]-0-1-3-4-3-

time reference - 2:05/4:00
lyrics - "lace me up..."

1st Chorus

[guitar one]

d]-----------------------------------------
a]-8-8-8-8-8-8-8-8-11-11-11-11-11-11-11-11-
f]-7-7-7-7-7-7-7-7-10-10-10-10-10-10-10-10-
c]-5-5-5-5-5-5-5-5-8--8--8--8--8--8--8--8--
g]-5-5-5-5-5-5-5-5-8--8--8--8--8--8--8--8--
c]-5-5-5-5-5-5-5-5-8--8--8--8--8--8--8--8--

[guitar two]

d]--------------------------------
a]--------------------------------
f]-12-15-14-15-14-15--12-15-17-14-
c]--------------------------------
g]--------------------------------
c]--------------------------------

[both]

d]-------------------------------------------------
a]-------------------------------------------------
f]-------------------------------------------------
c]-13-13-13-13-10-10-10-10-13-13-13-13-8-8-8-8-8p6-
g]-13-13-13-13-10-10-10-10-13-13-13-13-8-8-8-8-8p6-
c]-13-13-13-13-10-10-10-10-13-13-13-13-8-8-8-8-8p6- All x2

time reference - 2:25/4:00
lyrics - 

Extended Bridge

d]-----------------------------------------------------------------
a]-----------------------------------------------------------------
f]-----------------------------------------------------------------
c]-0h5-5-5-0h6-6-6-0h5-5-5-0h6-6-6-6-0h5-5-5-0h6-6-6-0h5-5-5-0h5-1-
g]-0h5-5-5-0h6-6-6-0h5-5-5-0h6-6-6-6-0h5-5-5-0h6-6-6-0h5-5-5-0h5-1-
c]-0h5-5-5-0h6-6-6-0h5-5-5-0h6-6-6-6-0h5-5-5-0h6-6-6-0h5-5-5-0h5-1- x2

d]---------------------------------------------------------------
a]---------------------------------------------------------------
f]---------------------------------------------------------------
c]-3h5-5-3-5-5-3h5-3h5-5-3-5-5-3h5-3h5-5-5-3-5-5-3h5-0-1-3-4-3-4-
g]-3h5-5-3-5-5-3h5-3h5-5-3-5-5-3h5-3h5-5-5-3-5-5-3h5-0-1-3-4-3-4-
c]-3h5-5-3-5-5-3h5-3h5-5-3-5-5-3h5-3h5-5-5-3-5-5-3h5-0-1-3-4-3-4- x4

d]-------------
a]-------------
f]-------------
c]-0-1-3-4-3-4-
g]-0-1-3-4-3-4-
c]-0-1-3-4-3-4- x2

lyrics - "slit wrist!"

d]-----------------------
a]-----------------------
f]-----------------------
c]-----------------------
g]-----------------------
c]-0-1-3-4-3-4--0-1-3-4~~

time reference - 3:09/4:00
lyrics - "

3rd Chorus

[guitar one]

d]-----------------------------------------
a]-8-8-8-8-8-8-8-8-11-11-11-11-11-11-11-11-
f]-7-7-7-7-7-7-7-7-10-10-10-10-10-10-10-10-
c]-5-5-5-5-5-5-5-5-8--8--8--8--8--8--8--8--
g]-5-5-5-5-5-5-5-5-8--8--8--8--8--8--8--8--
c]-5-5-5-5-5-5-5-5-8--8--8--8--8--8--8--8--

[guitar two]

d]--------------------------------
a]--------------------------------
f]-12-15-14-15-14-15--12-15-17-14-
c]--------------------------------
g]--------------------------------
c]--------------------------------

[both]

d]-------------------------------------------------
a]-------------------------------------------------
f]-------------------------------------------------
c]-13-13-13-13-10-10-10-10-13-13-13-13-8-8-8-8-8p6-
g]-13-13-13-13-10-10-10-10-13-13-13-13-8-8-8-8-8p6-
c]-13-13-13-13-10-10-10-10-13-13-13-13-8-8-8-8-8p6- All x2

time reference - 3:28/4:00

Outro

[play with Delay FX]

d]--------------------------
a]--------------------------
f]--------------------------
c]---8---7---5---8---7-10---
g]-----6---3-------6------8-
c]-5-----------5------------ x5

d]---
a]---
f]---
c]---
g]---
c]-5-

finish

to find more tabs written by myself similar to this one, mainly for 'tool' 
cheers, colin
            

comments powered by Disqus
↑ Back to top | 36 Crazy Fists Tabs for Slit Wrist Theory. Lyrics for acoustic guitar and electric guitar. Tablatures and chords are parodies/interpretations of the original songs. You may use it for private study, scholarship, research or language learning purposes only