» » »

Slit Wrist Theory Bass tabs (ver.1)

Artists:  A B C D E F G H I J K L M N O P Q R S T U V W X Y Z # 

Slit Wrist Theory Bass tabs (ver.1)

36 Crazy Fists
Rating:
0/5 (0 votes)

Hard to play? Try these video lessons and learn fast.
                (2)
This is my first tab I've posted on the internet.
Im pretty sure this is almost right.

Intro/Verse

|----------------------------------------------------
|----------8---------------7---------------5---------
|------------------6-----------------3---------------
|--5-------------------------------------------------

|--------------------------------------5-------------
|----------8---------------7--------------7----------
|------------------6---------------------------------
|--5-------------------------------------------------

|----------------------------------------------------
|----------------------------------------------------
|----------------------------------------------------
|--5-~-~-~-~-~---------------------------------------

Pre-Chorus

|-------------------------------------------
|-------------------------------------------
|-------------------------------------------
|--3-5-5-5--3-5-5-5-5--3--5-----------------

|-------------------------------------------
|-------------------------------------------
|-------------------------------------------
|-0-0----1-1----3-3----4-4-----3--4---------

Chorus

|-------------------------------------------
|-------------------------------------------
|-------------------------------------------
|-------5-5-5---------------8-8-8-----------

|-------------------------------------------
|-------------------------------------------
|-----------6-6-6--------------3-3-3--------
|-------------------------------------------

|-------------------------------------------
|-------------------------------------------
|---6-6-6-----------------------------------
|-------------------8-8-8-------------8---5-

Bridge

|------------------------------------------------------------------ 
|------------------------------------------------------------------
|------------------------------------------------------------------
|-5-5-5-3-6-6-6-3-5-5-5-3-6-6-6-3-5-5-5-3-6-6-6-3-5-5-5-5-1-1-1-1--

Intro/Verse - X4
Pre Chorus - X3
Chorus - X2
Intro/Verse - X2
Pre Chorus - X3
Chorus - X2
Bridge - X1
Pre Chorus - X3
Chorus - X2
Intro/Verse - X1
            
Hard to play? Try these video lessons and learn fast. | Correct




comments powered by Disqus
↑ Back to top | Tablatures and chords are parodies/interpretations of the original songs. You may use it for private study, scholarship, research or language learning purposes only