» » »

36 Crazy Fists, Only A Year Or So.. Tabs (ver.2)

Artists:  A B C D E F G H I J K L M N O P Q R S T U V W X Y Z # 

Only A Year Or So.. Tabs (ver.2)

36 Crazy Fists Tabs
 Rating:
4/5 (4 votes)
Only A Year Or So.. lessons Tabs too difficult? Try these video lessons and learn fast
                			     Only a year or so - 36 Crazyfists

Tuning: Drop C


Intro                 Piano part
D|--------------------------------------------------------------------|
A|--------------------------------------------------------------------|
F|-----9----9-----9----9----9-----10-9---10-9----10-9---10-9----10-9--|
C|---7----7-----7----7----7----10------10-----10------10-----10-------|
G|-8----8-----8----8----8---------------------------------------------|
C|--------------------------------------------------------------------|

intro/verse       Listen for how many times this is played
D|-----------------------------------------------------------------|
A|-----------------------------------------------------------------|
F|--14~------------------------------------------------------------|
C|------12~--12h14--10---------------------------------------------|
G|---------------------12~-----------------------------------------|
C|-----------------------------------------------------------------|

Chorus  guitar 1
D|-----------------------------------------------------------------|
A|-6-5-3-5-6-5-3-5-6-5-3-5-6-5-3-5---------------------------------|
F|-----------------------------------------------------------------|
C|-----------------------------------------------------------------|
G|-----------------------------------------------------------------|
C|-----------------------------------------------------------------|

Chorus  guitar 2
D|--------------------------------------------------------------|
A|--------------------------------------------------------------|
F|--------------------------------------------------------------|
C|--------------------------------------------------------------|
G|-00000000-22222222-33333333-55555555--------------------------|
C|-00000000-22222222-33333333-55555555--------------------------|

          2nd part of chorus, guitar 2 plays this
D|--------------------------------------------------------------|
A|--------------------------------------------------------------|
F|---------------1010\9\7/9---------------1010\9\7/9------------|
C|---------------x-x--x-x-x---------------x-x--x-x-x------------|
G|-0000-0-0000-0-8-8-\7\5/7-2222-2-2222-2-8-8-\7\5/7------------|
C|-0000-0-0000-0------------2222-2-2222-2-----------------------|
   ....   ....              ....   ....                         |
                                                                |
D|--------------------------------------------------------------|
A|--------------------------------------------------------------|
F|---------------1010\9\7/9---------------1010\9\7/9------------|
C|---------------x-x--x-x-x---------------x-x--x-x-x------------|
G|-3333-3-3333-3-8-8-\7\5/7-5555-5-5555-5-8-8-\7\5/7------------|
C|-3333-3-3333-3------------5555-5-5555-5-----------------------|
   ....   ....              ....   ....  

    
   after the 2nd chorus you keep playing the chorus riffs. 
   Then the piano outro

   And that's it!



| /  slide up
| \  slide down
| h  hammer-on
| p  pull-off
| ~  vibrato
| +  harmonic
| .  Mute note
            
Submit corrections

comments powered by Disqus
↑ Back to top | 36 Crazy Fists Tabs for Only A Year Or So... Lyrics for acoustic guitar and electric guitar. Tablatures and chords are parodies/interpretations of the original songs. You may use it for private study, scholarship, research or language learning purposes only