» » »

Only A Year Or So.. Bass tabs (ver.1)

Artists:  A B C D E F G H I J K L M N O P Q R S T U V W X Y Z # 

Only A Year Or So.. Bass tabs (ver.1)

36 Crazy Fists
Rating:
0/5 (0 votes)

Hard to play? Try these video lessons and learn fast.
                ONLY A YEAR OR SO… - 36 Crazyfists


Tuning: Drop C (CGCF)

Riff 1:

F|----------------|----------------|----------------|----------------|
C|---------------0|----------------|----------------|----------------|
G|0-0-------------|---3---0----0-1-|----------------|----------------|
C|----------------|----------------|33------------2-|---3---5-5------|

Riff 2:

F|----------------|----------------|----------------|----------------|
C|---------------0|----------------|----------------|----------------|
G|0-0-------------|---3---0----0-1-|----------------|-------7-5------|
C|----------------|----------------|33--------------|----------------|

Riff 3:

F|----------------|----------------|----------------|----------------|
C|---------------0|----------------|----------------|----------------|
G|0-0-------------|---3---0----0-1-|----------------|----------------|
C|----------------|----------------|33----------5---|3-----4-3-4-3-4-|

Bridge-riff:

F|----------------|----------------|----------------|
C|---------------0|----------------|----------------|
G|0-0-------------|---3---0----0-1x|----------------|
C|----------------|----------------|----------------|

Chorus, Part 1:

F|----------------|----------------|----------------|----------------|
C|----------------|----------------|----------------|----------------|
G|----------------|----------------|----------------|----------------|
C|0-0-0-0-0-0-0-0-|0-0-0-0-0-0-0-0-|2-2-2-2-2-2-2-2-|2-2-2-2-2-2-2-2-|

F|----------------|----------------|----------------|----------------|
C|----------------|----------------|----------------|----------------|
G|----------------|----------------|----------------|----------------|
C|3-3-3-3-3-3-3-3-|3-3-3-3-3-3-3-3-|5-5-5-5-5-5-5-5-|5-5-5-5-5-5-5-5-|

Chorus Part 2:

F|----------------|----------------|--------|
C|----------------|----------------|--------|
G|----------------|----------------|--------|
C|0-0-0-0---------|0-0-0-0-------8-|8-7-5-7-|

F|----------------|----------------|--------|
C|----------------|----------------|--------|
G|----------------|----------------|--------|
C|2-2-2-2---------|2-2-2-2-------8-|8-7-5-7-|

F|----------------|----------------|--------|
C|----------------|----------------|--------|
G|----------------|----------------|--------|
C|3-3-3-3---------|3-3-3-3-------8-|8-7-5-7-|


F|----------------|----------------|--------|
C|----------------|----------------|--------|
G|----------------|----------------|--------|
C|5-5-5-5---------|5-5-5-5-------8-|8-7-7-7-|


Coda:

F|--------------------------------|--------------------------------|
C|--------------------------------|--------------------------------|
G|--------------------------------|--------------------------------|
C|6-5-3-5----6-5-3-5----6-5-3-5---|8-7-5-7----8-7-5-7----8-7-5-7---|

F|----------------|----------------|----------------|----------------|
C|----------------|----------------|----------------|----------------|
G|----------------|----------------|----------------|----------------|
C|3-3-3-3----3333-|3----33333333-3-|5-5-5-5----5555-|5---------------|


Now just a matter of playing everything in the right order:

Intro (no bass)
Riff 1
Riff 2
Riff 3
Riff 2
Riff 1
Riff 2
Riff 2
Riff 3
Bridge-riff
Chorus Part 1
Chorus Part 2
Riff 1
Riff 2
Riff 3
Bridge riff
Chorus Part 1
Chorus Part 2
Chorus Part 1
Coda
Outro (no bass)


The coda is a bit blurry, but you can play 0’s and 2’s and 3’s and 5’s instead if you 
The other parts should be fine.

Have fun

| x  Mute note
            
Hard to play? Try these video lessons and learn fast. | Correct




comments powered by Disqus
↑ Back to top | Tablatures and chords are parodies/interpretations of the original songs. You may use it for private study, scholarship, research or language learning purposes only