» » »

36 Crazy Fists, An Agreement Called Forever Tabs (ver.1)

Artists:  A B C D E F G H I J K L M N O P Q R S T U V W X Y Z # 

An Agreement Called Forever Tabs (ver.1)

36 Crazy Fists Tabs
Rating:
0/5 (0 votes)
An Agreement Called Forever lessons Tabs too difficult? Try these video lessons and learn fast
                
drop 1 whole step and drop the 6th string to C (C-G-C-F-A-D)



Intro

D-------------------------------------------
A-------------------------------------------
F--------------------------6-6-6-6/4-4------
C--6/7-7-7-7/6-6-6--------------------------
G--------------------------4-4-4-4/2-2------
C-------------------------------------------

Intro-continued (band kicks in)

D-------------------------------------------
A-------------------------------------------
F---------6-6-6-6/4-4--------6-6-6-6/9-9----
C---4--------------------4------------------
G---4-----4-4-4-4/2-2----4---4-4-4-4/7-7----
C---4--------------------4------------------


Verse

D-------------------------------------------
A-------------------------------------------
F------------------------------------------- This is done 3 times
C------------------------------------------- 
G---------------------4-4-4-4-2-2-2---------
C---4-4-4-4-4-4-4-4-4-----------------------
PM  . . . . . . . . . . . . . . . .


then the fourth time it's this:

D-------------------------------------------
A-------------------------------------------
F-------------------------6-6-6-6/9-9-------
C---4-4-4-4-4-4-4-4-4-----------------------
G---4-4-4-4-4-4-4-4-4-----4-4-4-4/7-7-------
C---4-4-4-4-4-4-4-4-4-----------------------

after that, they play the intro part tabbed above 4 times


then the chorus:


Chorus

Guitar A

D--------------------------------------------
A--------------------------------------------
F----------9----7--------------9----7-------- 
C-----4----9----7----4----4----9----7----4---
G-----4----7----5----4----4----7----5----4---
C-----4--------------4----4--------------4---
It turns me on me ... It turns me on me ...    


D-------------------------------------------
A-------------------------------------------
F------------------------------------------- 
C-----4----2----0----4----4----2----0----4--
G-----4----2----0----4----4----2----0----4--
C-----4----2----0----4----4----2----0----4--
'cuz this is everything I've stripped away, I've stripped away.


Chorus

Guitar B

D-------------------------------     
A--9--9--9--9--9--9--9--10------      
F-------------------------------      
C-------------------------------      
G-------------------------------      
C-------------------------------           
      It turns 				      	
D-------------------------------      
A--9--9--9--9--9--9--9--10------      
F-------------------------------      
C-------------------------------      
G-------------------------------      
C-------------------------------      
	me on			      
D-------------------------------
A--9--9--9--9--9--9--9--10------
F-------------------------------
C-------------------------------
G-------------------------------
C-------------------------------
	me
D-------------------------------
A--9--9--9--9--5--5--5--5-------
F-------------------------------  this whole thing is played 2 times
C-------------------------------
G-------------------------------
C-------------------------------

////////////////////////////////////////

D-------------------------------
A--9--9--9--9--9--9--9--9-------
F-------------------------------
C-------------------------------
G-------------------------------
C-------------------------------
	cuz this is
D-------------------------------
A--10-10-10-10-10-10-10-10------
F-------------------------------
C-------------------------------
G-------------------------------
C-------------------------------
	every
D-------------------------------
A--14-14-14-14-14-14-14-14------
F-------------------------------
C-------------------------------
G-------------------------------
C-------------------------------
	thing
D-------------------------------
A--12-12-12-12-12-12-12-12------
F------------------------------- this whole thing is played ONCE
C-------------------------------
G-------------------------------
C-------------------------------
	I've stripped away
/////////////////////////////////////////////////////

then it goes back to the other part:

D-------------------------------     
A--9--9--9--9--9--9--9--10------      
F-------------------------------      
C-------------------------------      this is played once more
G-------------------------------      
C------------------------------- . . . and so on
   I've stripped awayyyy 


Post-Chorus

D-------------------------------------------
A-------------------------------------------
F-------------------------------------------
C---0----0------2-2-2/4-4--------------------
G---0----0------2-2-2/4-4--------------------
C---0----0------2-2-2/4-4--------------------
This is me, well this I know, this is me, well is it?


        BRIDGE
	  |
	  |
 Guitar 1 | Guitar 2
	  |
D---------|----------------------------------------
A---------|----------------------------------------
F---------|----------------------------------------
C--4------|--6/7-6-6-6---4-4-4-4-------------------
G--4------|----------------------------------------
C--4------|----------------------------------------
  Well I've tried to sit you down and take the fall



D---------|----------------------------------------
A---------|----------------------------------------
F---------|----------------------------------------
C--2------|--6/7-6-6-6---4-4-4-4-------------------
G--2------|----------------------------------------
C--2------|----------------------------------------
            and look you in the eye


D---------|----------------------------------------
A---------|----------------------------------------
F---------|--------------4-4-4-4-------------------
C--0------|--6/7-6-6-6-----------------------------
G--0------|----------------------------------------
C--0------|----------------------------------------
            and tell you it all

D---------|----------------------------------------
A---------|----------------------------------------
F---------|--4/6-6-6-6---7-6-7-6-------------------
C--4------|----------------------------------------
G--4------|----------------------------------------
C--4------|----------------------------------------


they play that whole Bridge twice. But the second time,
the last part is different. it goes like this:

D---------|----------------------------------------
A---------|----------------------------------------
F---------|--4/6-6-6-6---7-7-7-9-9-9---------------
C--4------|--------------5-5-5-7-7-7---------------
G--4------|--------------5-5-5-7-7-7---------------
C--4------|----------------------------------------


/*-\/*-\-*/\/-*\-*/\-*/\_-/-*/\-*_/\-*\*\*-/_\/\-_\*//*\_-/\-\*/


that's it, my fellow 36 CF fans. you can figure out the order yourselves.

my other 36 CF tabs:
-Turns To Ashes
-Slit Wrist Theory
-One More Word
-Eightminutesupsidedown
            

comments powered by Disqus
↑ Back to top | 36 Crazy Fists Tabs for An Agreement Called Forever. Lyrics for acoustic guitar and electric guitar. Tablatures and chords are parodies/interpretations of the original songs. You may use it for private study, scholarship, research or language learning purposes only