» » »

36 Crazy Fists, An Agreement Called Forever Tabs (ver.2)

Artists:  A B C D E F G H I J K L M N O P Q R S T U V W X Y Z # 

An Agreement Called Forever Tabs (ver.2)

36 Crazy Fists Tabs
Rating:
0/5 (0 votes)
An Agreement Called Forever lessons Tabs too difficult? Try these video lessons and learn fast
                An agreement called forever
36 Crazyfists
Bitterness The Star

Standard tuning

riff 1:
---------------------4-4-4-4-2-2-------------------4-4-4-4-2-2---
---4/5-5-5-5-4-4-4---4-4-4-4-2-2---0-0-0-0-0-0-0---4-4-4-4-2-2---
---------------------2-2-2-2-0-0---0-0-0-0-0-0-0---2-2-2-2-0-0---
-----------------------------------0-0-0-0-0-0-0-----------------

--------------------4-4-4-4-7-7-------------------4-4-4-4-2-2---
---0-0-0--0-0-0-0---4-4-4-4-7-7---0-0-0-0-0-0-0---4-4-4-4-2-2---
---0-0-0--0-0-0-0---2-2-2-2-5-5---0-0-0-0-0-0-0---2-2-2-2-0-0---
---0-0-0--0-0-0-0-----------------0-0-0-0-0-0-0-----------------

riff 2:
-------------------------------------
-------------------------------------
-------------------------------------
---0-0-0-0-0-0-0-0-7-7-7-7-5-5-5-5---
---0-0-0-0-0-0-0-0-7-7-7-7-5-5-5-5---
---0-0-0-0-0-0-0-0-7-7-7-7-5-5-5-5---

riff 4:
-------------------------------------------------------
-------------------------------------------------------
-------------------------------------------------------
---12-12-12-12-12-10-10-10-10-10-7-7-7-7-7-0-0-0-0-0---
---12-12-12-12-12-10-10-10-10-10-7-7-7-7-7-0-0-0-0-0---
---12-12-12-12-12-10-10-10-10-10-7-7-7-7-7-0-0-0-0-0---

guitar 2
---------------------------
---7-7-8/7-7-8/7-7-8/7-----
-----------------------7---
---------------------------
---------------------------
---------------------------

riff 5:
------------------------
------------------------
------------------------
---5--0--0-0-2--2-2-2---
---5--0--0-0-2--2-2-2---
---3--0--0-0-2--2-2-2---

riff 6:
------------------------------------------------------4-4-4--2/4-4-4-5-5-5-5---
---4/5-5-4--4-2-2-2-2---4/5-5-4--2-2-2-2---4/5-5-4--4--------------------------
            

comments powered by Disqus
↑ Back to top | 36 Crazy Fists Tabs for An Agreement Called Forever. Lyrics for acoustic guitar and electric guitar. Tablatures and chords are parodies/interpretations of the original songs. You may use it for private study, scholarship, research or language learning purposes only