» » »

36 Crazy Fists, All I Am Bass tabs (ver.2)

Artists:  A B C D E F G H I J K L M N O P Q R S T U V W X Y Z # 

All I Am Bass tabs (ver.2)

36 Crazy Fists Tabs
Rating:
0/5 (0 votes)
All I Am lessons Tabs too difficult? Try these video lessons and learn fast
                36 crazyfists
All I Am
Bitterness The Star

Tuning C G C F

Intro part 1: x2
 
|---------------------------------------------------------|
|---------------------------------------------------------|
|-----------------------------------/7-8-8-8p7------------|
|---5p4-4-5p4-4--/10—7---5p4-4-5p4-4-----------7----------|
 


Intro part 2: x1
 
|----------------------------------------------------------------------|
|----------------------------------------------------------------------|
|----------------------------------------------------------------------|
|--5p4-4-5p4-4---2----5p4-4-5p4-4---0-----5p4-4-5p4-4---2h4---4/7-8/44-|
    

Intro part 3:

|----------------------------------------------------------------------------------| 
|----------------------------------------------------------------------------------|
|----------------------------------------------------------------------------------|
|-5p4-4-5p4-4--2h4--5p4-4-5p4-4---0--5p4-4-5p4-4--2h4-5p4-4-4-4/7-7-7-7/8-8-8-8/4-4|
 
Verse:
 
x1
|-------------------------------------------------------| 
|-------------------------------------------------------|
|-------3-----------1-----------3-----------1-----------|
|----4-----4-----2-----2-----4-----4-----2-----2--------|

 
x1 
|------6-----------4---------------6-----------4----------------|
|---4-----4-----2-----2-2h3-----4-----4-----2-----2-2h3---------|
|---------------------------------------------------------------|
|---------------------------------------------------------------|


x1 
|-----6—-6----------------4--4---------------6—-6----------------4--4-4-4---------|
|-4-4------4-4-4------2-2------2-2-2-----4-4------4-4-4------2-2----------2-------| 
|---------------------------------------------------------------------------------|  
|---------------------------------------------------------------------------------| 


Chorus: x1
 
|--------------------------------------------------------------------
|--------------------------------------------------------------------
|--------------------------------------------------------------------
|-----4-4-4----4-4-4---4-4-5p4-4-------4-4-4----4-4-4---4-4--5p4-4---
 

-----4-4-4----4-4-4---4-4-5p4-4-------4-4-4----4-4-4---4/7-7-7/8-8-8---|


Verse: (same as before)


Chorus: x2


Bridge: x2
 
|--------------------------------------------------------
|--------------------------------------------------------
|------------------9--10--9-9----------------------------
|-----2-2--0--0-0----------------9--9-9---5-5-5--4--0----
 
---------------------------------------------------------|
---------------------------------------------------------|
-------------------10\9--9-9-----------------------------|
-----2-2--0--0-0----------------9--9-9---5-5-5---4--0----|


Verse variation:

X1
|------------------------------------------------------|
|------------------------------------------------------|
|------3-----------1-----------3-----------1-----------|
|---4-----4-----2-----2-----4-----4-----2-----2--------|

 
x1
|-----6-----------4---------------6-----------4----------------|
|--4-----4-----2-----2-2h3-----4-----4-----2-----2-2h3---------|
|--------------------------------------------------------------|
|--------------------------------------------------------------|


x1
|----6—-6----------------4--4---------------6—-6---------------------|
|4-4------4-4-4------2-2------2-2-2-----4-4------4-4-4------2~(echo)-|
|--------------------------------------------------------------------| 
|--------------------------------------------------------------------|

 
Chorus: x2

Bridge: x2

Chorus: x1

Second bridge: x2

|--------------------------------------------------------------
|--------------------------------------------------------------
|--------------------------------------------------------------
|---0-0-0---0-0-0--4-4-5p4-4-----0-0-0---0-0-0--4-4--5p4-4-----


----0-0-0---0-0-0--4-4-5p4-4-----0-0-0---0-0-0--4/7-7-7/8-8-8-----|


Outro: x1

|-------|
|-------|
|-------|
|--4~---|
            
Submit corrections

comments powered by Disqus
↑ Back to top | 36 Crazy Fists Bass for All I Am. Lyrics for acoustic guitar and electric guitar. Tablatures and chords are parodies/interpretations of the original songs. You may use it for private study, scholarship, research or language learning purposes only