>
 >
All I Am 1

All I Am 1 Bass Tabs

36 Crazy Fists - All I Am 1 chords, tabs, tablatures, lyrics

Guitar lessons | Add/correct | Request | Top 50 tabs Artists:  A B C D E F G H I J K L M N O P Q R S T U V W X Y Z 0-9

All I Am 1 Bass Tabs – 36 Crazy Fists

CD, Sheet music, Poster

Do you like All I Am 1? Share with your friends now
Bass TabsBass Tabs v2Tabs
36 crazyfists
All I Am
Bitterness The Star

Tuning C G C F

Intro part 1: x2
 
|---------------------------------------------------------|
|---------------------------------------------------------|
|-----------------------------------/7-8-8-8p7------------|
|---5p4-4-5p4-4--/107---5p4-4-5p4-4-----------7----------|
 


Intro part 2: x1
 
|----------------------------------------------------------------------|
|----------------------------------------------------------------------|
|----------------------------------------------------------------------|
|--5p4-4-5p4-4---2----5p4-4-5p4-4---0-----5p4-4-5p4-4---2h4---4/7-8/44-|
    

Intro part 3:

|----------------------------------------------------------------------------------| 
|----------------------------------------------------------------------------------|
|----------------------------------------------------------------------------------|
|-5p4-4-5p4-4--2h4--5p4-4-5p4-4---0--5p4-4-5p4-4--2h4-5p4-4-4-4/7-7-7-7/8-8-8-8/4-4|
 
Verse:
 
x1
|-------------------------------------------------------| 
|-------------------------------------------------------|
|-------3-----------1-----------3-----------1-----------|
|----4-----4-----2-----2-----4-----4-----2-----2--------|

 
x1 
|------6-----------4---------------6-----------4----------------|
|---4-----4-----2-----2-2h3-----4-----4-----2-----2-2h3---------|
|---------------------------------------------------------------|
|---------------------------------------------------------------|


x1 
|-----6-6----------------4--4---------------6-6----------------4--4-4-4---------|
|-4-4------4-4-4------2-2------2-2-2-----4-4------4-4-4------2-2----------2-------| 
|---------------------------------------------------------------------------------|  
|---------------------------------------------------------------------------------| 


Chorus: x1
 
|--------------------------------------------------------------------
|--------------------------------------------------------------------
|--------------------------------------------------------------------
|-----4-4-4----4-4-4---4-4-5p4-4-------4-4-4----4-4-4---4-4--5p4-4---
 

-----4-4-4----4-4-4---4-4-5p4-4-------4-4-4----4-4-4---4/7-7-7/8-8-8---|


Verse: (same as before)


Chorus: x2


Bridge: x2
 
|--------------------------------------------------------
|--------------------------------------------------------
|------------------9--10--9-9----------------------------
|-----2-2--0--0-0----------------9--9-9---5-5-5--4--0----
 
---------------------------------------------------------|
---------------------------------------------------------|
-------------------10\9--9-9-----------------------------|
-----2-2--0--0-0----------------9--9-9---5-5-5---4--0----|


Verse variation:

X1
|------------------------------------------------------|
|------------------------------------------------------|
|------3-----------1-----------3-----------1-----------|
|---4-----4-----2-----2-----4-----4-----2-----2--------|

 
x1
|-----6-----------4---------------6-----------4----------------|
|--4-----4-----2-----2-2h3-----4-----4-----2-----2-2h3---------|
|--------------------------------------------------------------|
|--------------------------------------------------------------|


x1
|----6-6----------------4--4---------------6-6---------------------|
|4-4------4-4-4------2-2------2-2-2-----4-4------4-4-4------2~(echo)-|
|--------------------------------------------------------------------| 
|--------------------------------------------------------------------|

 
Chorus: x2

Bridge: x2

Chorus: x1

Second bridge: x2

|--------------------------------------------------------------
|--------------------------------------------------------------
|--------------------------------------------------------------
|---0-0-0---0-0-0--4-4-5p4-4-----0-0-0---0-0-0--4-4--5p4-4-----


----0-0-0---0-0-0--4-4-5p4-4-----0-0-0---0-0-0--4/7-7-7/8-8-8-----|


Outro: x1

|-------|
|-------|
|-------|
|--4~---|





Comments


Popular 36 Crazy Fists tabs & chords
All I Am Bass Tabs
Destroy The Map Bass Tabs
Erasism Bass Tabs
Turns To Ashes Bass Tabs
At The End Of August Tabs
Bloodwork Tabs
Destroy The Map Intro Tabs
Dislocate Tabs
Installing The Catheter Tabs
Skin And Atmosphere Tabs


Song lyrics



↑ Back to top | Tablatures and chords are parodies/interpretations of the original songs. You may use it for private study, scholarship, research or language learning purposes only
© 2014 AZChords.com Contact us | Privacy policy | DMCA | Add/correct tabs | Request tabs | Top 50 tabs