» » »

36 Crazy Fists, All I Am Tabs (ver.1)

Artists:  A B C D E F G H I J K L M N O P Q R S T U V W X Y Z # 

All I Am Tabs (ver.1)

36 Crazy Fists Tabs
Rating:
0/5 (0 votes)
All I Am lessons Tabs too difficult? Try these video lessons and learn fast
                
Drop C tuning (C-G-C-F-A-D)


Intro
D-------------------------------------------
A-------------------------------------------
F-------------------------------------------
C---5p4-4-5p4-4--5p4------------------------
G---5p4-4-5p4-4--5p4------------------------
C---5p4-4-5p4-4--5p4------------------------
whispered : "I want you to feel"


(* = harmonic)
D--------------------------
A---------*7---------------
F---*5---------------------
C--------------------------
G--------------------------
C--------------------------


Intro - continued
D------------------------------------------------------------------------
A------------------------------------------------------------------------
F------------------------------------------------------------------------
C--5p4-4-5p4-4---2----5p4-4-5p4-4---0-----5p4-4-5p4-4---2h4---4/7--8/4-4-
G--5p4-4-5p4-4---2----5p4-4-5p4-4---0-----5p4-4-5p4-4---2h4---4/7--8/4-4-
G--5p4-4-5p4-4---2----5p4-4-5p4-4---0-----5p4-4-5p4-4---2h4---4/7--8/4-4-
   AHHH!              AHHH!               AHHH!             AHHH!   AHHH! 
    [don't know what he really says ..... sorry]


D-----------------------------------------------------------------------------------
A-----------------------------------------------[this whole thing is played 2x]-----
F-----------------------------------------------------------------------------------
C-5p4-4-5p4-4--2h4--5p4-4-5p4-4---0--5p4-4-5p4-4--2h4-5p4-4-4-4/7-7-7-7/8-8-8-8/4-4-
G-5p4-4-5p4-4--2h4--5p4-4-5p4-4---0--5p4-4-5p4-4--2h4-5p4-4-4-4/7-7-7-7/8-8-8-8/4-4-
G-5p4-4-5p4-4--2h4--5p4-4-5p4-4---0--5p4-4-5p4-4--2h4-5p4-4-4-4/7-7-7-7/8-8-8-8/4-4-
AAAAHHHHH!


Verses (* = harmonic)
[no vocals]
D------------------------*7---------------
A-----*7----------------------------------
F------------*5-----------------*7--------
C-----------------------------------------
G-----------------------------------------
C-----------------------------------------

D-------------------------------*5--------
A----*7------------------*5---------------
F------------*5---------------------------
C-----------------------------------------
G-----------------------------------------
C-----------------------------------------

Verse - continued [w/vocals]
D-----------------------------7-----------
A--------------------7--------------------
F-----------6-----------------------------
C---4-------------------------------------
G-----------------------------------------
C-----------------------------------------


D---------------------5-------------------
A-----------------------------5-----------
F----------4------------------------------
C--2--------------------------------------      2x
G-----------------------------------------  
C----------------------------------------- 

Verse - continued [echoes in parentheses]
D-----------------------7 (7)-(7)---------
A------7-(7)-(7)--------7-(7)-(7)---------
F------6-(6)-(6)--------------------------
C-----------------------------------------
G-----------------------------------------
C-----------------------------------------


D----------------------5-(5)-(5)----------
A------5-(5)-(5)-------5-(5)-(5)----------
F------4-(4)-(4)--------------------------
C-----------------------------------------
G-----------------------------------------
C-----------------------------------------



D----------------------7 (7)-(7)----------
A------7-(7)-(7)-------7-(7)-(7)----------
F------6-(6)-(6)--------------------------
C-----------------------------------------
G-----------------------------------------
C-----------------------------------------



D-----5-(5)-(5)--------7-(7)-(7)----------
A-----5-(5)-(5)--------7-(7)-(7)----------
F-----------------------------------------
C-----------------------------------------
G-----------------------------------------
C-----------------------------------------


Chorus
D--------------------------------------------
A--------------------------------------------
F--------------------------------------------
C-----4-4-4------4-4-4-----0-0-5p4-4---------
G-----4-4-4------4-4-4-----0-0-5p4-4---------
C-----4-4-4------4-4-4-----0-0-5p4-4---------
All I am is all I'll be

D--------------------------------------------
A--------------------------------------------
F--------------------------------------------
C-----4-4-4------4-4-4-----4-4--5p4-4--------
G-----4-4-4------4-4-4-----4-4--5p4-4--------
C-----4-4-4------4-4-4-----4-4--5p4-4--------


D--------------------------------------------
A--------------------------------------------
F--------------------------------------------
C-----4-4-4------4-4-4-----0-0--5p4-4--------
G-----4-4-4------4-4-4-----0-0--5p4-4--------
C-----4-4-4------4-4-4-----0-0--5p4-4--------

D--------------------------------------------
A--------------------------------------------
F--------------------------------------------
C-----4-4-4------4-4-4-----4/7-7/8-8---------
G-----4-4-4------4-4-4-----4/7-7/8-8---------
C-----4-4-4------4-4-4-----4/7-7/8-8---------


Bridge
D---------------------------------------------------------------------------
A---------------------------------------------------------------------------
F----------------------11--12---11-11---------------------------------------
C-----2-2---0--0-0------------------------11---11-11---7--7--7-----4---0----
G-----2-2---0--0-0------9--10----9--9------9----9--9---5--5--5-----4---0----
C-----2-2---0--0-0-------------------------9----9--9---5--5--5-----4---0----
Follow it all doooooowwwwwwwwn ....

D----------------------------------------------------------------------------
A----------------------------------------------------------------------------
F-----------------------12\11--11-11-----------------------------------------
C-----2-2---0--0-0------------------------11---11-11----7--7--7-----4---0----
G-----2-2---0--0-0------10\9----9--9-------9----9--9----5--5--5-----4---0----
C-----2-2---0--0-0-------------------------9----9--9----5--5--5-----4---0----


Short Solo after first bridge
D------------------------------------------------------------
A----7^------8-7^----------5^--------------------------------
F------------------------------------------------------------
C--------------------------------------------5--4--------2---
G------------------------------------------------------------
C------------------------------------------------------------

^ after this it goes back to the same verse riffs

at the end of the song, the Chorus riff is played with slight variations that you can figure out.
            

comments powered by Disqus
↑ Back to top | 36 Crazy Fists Tabs for All I Am. Lyrics for acoustic guitar and electric guitar. Tablatures and chords are parodies/interpretations of the original songs. You may use it for private study, scholarship, research or language learning purposes only