» »

/0-9/311-tabs-28.html

»

White Man In Hammersmith Palais Bass tabs (ver.2)

Artists:  A B C D E F G H I J K L M N O P Q R S T U V W X Y Z # 

White Man In Hammersmith Palais Bass tabs (ver.2)

311
Rating:
0/5 (0 votes)

Hard to play? Try these video lessons and learn fast.
                '(White Man) in Hammersmith Palais' -- Bass Tab
Performed by 311
Music by:  Strummer & Jones
Lyrics by:  Strummer & Jones
---------------


Intro Part:
===========

G:---------------------------------
D:---------------------------------
A:-----------------7-7-7-7-7-7-7-7-
E:-5-5-5-5-5-5-5-5-----------------

(Repeat this once)

G:-------------------------
D:-------------------------
A:-------------5-5---5-5-5-
E:-3-3---3-3-3-------------

G:-----------
D:-----------
A:-----------
E:-3-3---3-5-  Let ring...

Verse Part:
===========
Lots of variation on rhythm is good. make this part bounce!

(Repeat this part once)
G:---------------------------------
D:---------------------------------
A:----------7--4--4-4-4--5--4------
E:-5--5-5-5-------------------7--5-

G:-------------------------------
D:------------4--4-4-4-----------
A:----------7----------5--4------
E:-5--5-5-5-----------------7--5-

G:---------------------
D:---------------------
A:----------7----------
E:-5--5-5-5---5--5-5-5-

Other Part:
===========
Played staccato and understated

G:-------------------------------------------
D:-------------------------------------------
A:----------7----------5----------7----------
E:-5--5-5-5---5--5-5-5---5--5-5-5---5--5-5-5-

During the guitar solo, add this before the end:

G:-------------------------------
D:------------4--4-4-4-----------
A:----------7----------5--4------
E:-5--5-5-5-----------------7--5-


Song Structure:
===============
Intro
Verse (x2)
Intro
Other part
Verse (x2)
Other part w/little addition
Verse (x4) *
Other Part until end of song

* The last two Verse Parts are the same, just with a steady thrash-rhythm 
like the intro.  Same with the last bit of the Other Part.
            
Hard to play? Try these video lessons and learn fast. | Correct




comments powered by Disqus
↑ Back to top | Tablatures and chords are parodies/interpretations of the original songs. You may use it for private study, scholarship, research or language learning purposes only