» »

/0-9/311-tabs-28.html

»

311, Visit Tabs (ver.1)

Artists:  A B C D E F G H I J K L M N O P Q R S T U V W X Y Z # 

Visit Tabs (ver.1)

311 Tabs
Rating:
0/5 (0 votes)
Visit lessons Tabs too difficult? Try these video lessons and learn fast
                'Visit'
Performed by 311
Music by:  N. Hexum, C. Sexton, T. Mahoney & A. Wills
Lyrics by:  N. Hexum & D. Martinez
(c) 1993 Allegiance Music/Hydroponic Music BMI
---------------


Intro:
   E5  A5  B5  C5  B5 A5  N.C.        E5  A5  B5  C5  D5  B5
e:----------------------------------------------------------
B:----------------------------------------------------------
G:----------------------------------------------------------
D:-----2---4---5---4----------------------2---4---5---7-----
A:-2---0---2---3---2------------------2---0---2---3---5---9-
E:-0------------------b3b--0-0-5-0-0--0-------------------7-

   C5   B5  A5   C5  B5  A5
e:--------------------------
B:--------------------------
G:--------------------------
D:--------------------------
A:-10---9---7----10---9---7-
E:--8---7---5-----8---7---5-

   E5  A5  B5  C5  B5 A5  N.C.        E5  A5  B5  C5  D5  B5
e:----------------------------------------------------------
B:----------------------------------------------------------
G:----------------------------------------------------------
D:-----2---4---5---4----------------------2---4---5---7-----
A:-2---0---2---3---2------------------2---0---2---3---5---9-
E:-0------------------b3b--0-0-5-0-0--0-------------------7-

   E5      A5      E5      A5      E5      A5      E5
e:-----------------------------------------------------
B:-----------------------------------------------------
G:---------------------------------9-9-9-9---------9//-
D:-9-9-9-9---------9-9-9-9---------9-9-9-9-7-7-7-7-9//-
A:-7-7-7-7-7-7-7-7-7-7-7-7-7-7-7-7-7-7-7-7-7-7-7-7-7//-
E:---------5-5-5-5---------5-5-5-5---------5-5-5-5-----
  |          Palm Muted           |

Riff 1:
   N.C.
e:------------------------
B:------------------------
G:------------------------
D:------------------------
A:-------0--1--0----------
E:-0--3-----------2h3p2h3-

Riff 2:
   A6
e:-14--14--14--14--14--14--14--14--14--14--14--14--14--14--14--14-
B:-14--14--14--14--14--14--14--14--14--14--14--14--14--14--14--14-
G:-14--14--14--14--14--14--14--14--14--14--14--14--14--14--14--14-
D:----------------------------------------------------------------
A:----------------------------------------------------------------
E:----------------------------------------------------------------

Chorus:
   A5            C#  B   C#  (D)
e:-------------------------------
B:-------------------------------
G:---------------6---4---6---(7)-
D:-7-7-7-7-7-7---6---4---6---(7)-
A:-7-7-7-7-7-7---4---2---4---(5)-
E:-5-5-5-5-5-5-------------------

At end of chorus play: B5 (x244xx)

Fill (w/octaver):
   N.C.
e:----------------
B:----------------
G:----------------
D:----------------
A:-2-0---0--------
E:-----3----3-2-3-

Bridge:
   B5  F#5 G5  A5  N.C.
e:-------------------------
B:-------------------------
G:-4-----------------------
D:-4-----------------------
A:-2---4---5---7-----------
E:-----2---3---5---7-5-3-5-
                  |---->
                   Rest of the Bridge w/octaver
   N.C.
e:-----------------------------------------------------------------------
B:-----------------------------------------------------------------------
G:-----------------------------------------------------------------------
D:-----------------------------------------------------------------------
A:-----------------------------------------------------------------------
E:-0-3-2-3-5-3-2-3-6-5-3-5-3-2-3-2--0-3-2-3-5-3-2-3-6-5--3-3-3-3-3---0-3-

   N.C.
e:-----------------------------------------------------------------------
B:-----------------------------------------------------------------------
G:-----------------------------------------------------------------------
D:-----------------------------------------------------------------------
A:-----------------------------------------------------------------------
E:-2-3-5-3-2-3-6-5-3-5-3-2-3-2-0-3-2-3-5-3-2-3-6-6-6-6-6-6-6-6-3-3-3-3-3-

Ending Solo:
   N.C.
e:--------------------------------------------------------------------
B:-------------------16--17p15p14-17p15p14-17p15p14-17p15p14-19p17p16-
G:-------------16-18--------------------------------------------------
D:----------18--------------------------------------------------------
A:----16-18-----------------------------------------------------------
E:-17-----------------------------------------------------------------

   N.C.
e:-------------------17p16p14--------------------------------------
B:-19p17p16-19p17p16-----------17p15p14-17p15p14-17p15p14-17p15p14-
G:-----------------------------------------------------------------
D:-----------------------------------------------------------------
A:-----------------------------------------------------------------
E:-----------------------------------------------------------------

   N.C.
e:----------------------------17p16p14----------------------------------
B:-19p17p16-19p17p16-19p17p16---------------17-17--15-14-------14h15p14-
G:---------------------------------------14--------------16-14----------
D:----------------------------------------------------------------------
A:----------------------------------------------------------------------
E:----------------------------------------------------------------------

   N.C.
e:--------------------14-17-14----14-17-17--b19b-19-17-19-17----17-17-
B:----------17-17--17----------17----------------------------19-------
G:-16-13h14-----------------------------------------------------------
D:--------------------------------------------------------------------
A:--------------------------------------------------------------------
E:--------------------------------------------------------------------

   N.C.
e:-15-14-------14-12----------------------------------
B:-------17-15-------15-14----14-14-14-15-15-17-17-14-
G:----------------------------14-14-14-16-16-18-18-14-
D:----------------------------------------------------
A:----------------------------------------------------
E:----------------------------------------------------


Lyrics/Song Structure:
---> Play Intro (x1)
---> Play Riff 1 over:
Nick:
   He wouldn't say he cared at all if you asked him
   You're heading for a fall brother it goes right past him
   In another world, he's in another place
   You know the need for speed is just another form of greed
   But when you're Jones'n your brains are frozen
   You're not thinkin' about the choices you made you're just rollin'
   On and on it's anybody's guess
   Cause no one's at the wheel at the front of that mess, yes
---> Play Riff 2 over:
   The sun's going down for me, it's going down for me
   He and she are what I need, yes they're what I need
   But I'm gonna buy a ticket, I'm not gonna even pick it
   I heard it he said it I heard it but it we but it went something like
---> Play Chorus over:
Both:
   Visit, I wanna visit the world
   So now I visit the world
   With my time on this world
---> Play Fill (x1)
---> Play Riff 1 over:
SA:
   Because living when you're hungry is a dog in an alley
   Now I mind my own business cause I'm rhymin' down in Cali
   I ain't playin when sayin' kings of the ghetto feel they losing ground
   Vato's going loco because everyone's brought down
   This is a visit to then we dead fade to dust strickin'
   I'm wearing my Doc Martens cause I'm always down for kickin'
   This my friend the city pity everywhere the enemy
   Ready or not homey stompin' everyone in front of me
---> Play Riff 2 over:
Nick:
   Jump up and down cause that's the 311 style
   Crusin' by the frowners, follow me now with a smile
   Looking at the ocean, I say there's plenty
   Looking at the river, I say there's plenty
---> Play Chorus over:
Both:
   Visit, I wanna visit the world
   So now I visit the world
   With my time on this world
---> Play Bridge
---> Play Riff 2 over:
Nick:
   Jump up and down cause that's the 311 style
   Cruise on by the frowners float follow me with a smile
   I got a golden ticket, I'm not gonna even pick it
   I heard it he said it I heard it but it went something like
---> Play Chorus over:
Both:
   Visit, I wanna visit the world
   So now I visit the world
   With my time on this world
   Visit, I wanna visit the world
   So now I visit the world
   With my time on this world
---> Play Ending Solo
            
Submit corrections

comments powered by Disqus
↑ Back to top | 311 Tabs for Visit. Lyrics for acoustic guitar and electric guitar. Tablatures and chords are parodies/interpretations of the original songs. You may use it for private study, scholarship, research or language learning purposes only