» »

/0-9/311-tabs-28.html

»

Sweet No Sa Bass tabs (ver.1)

Artists:  A B C D E F G H I J K L M N O P Q R S T U V W X Y Z # 

Sweet No Sa Bass tabs (ver.1)

311
Rating:
0/5 (0 votes)

Tabs too difficult? Try these video lessons and learn fast.
                'Sweet [NO SA]' -- Bass Tab
Performed by 311
An outtake from the "311" album
Music by:  N. Hexum
Lyrics by:  N. Hexum
(c) 1995 Allegiance Music/Hydroponic Music BMI
---------------

* This is basically the same exact bassline from the 'Sweet' on the 311
  album, HOWEVER, the part were SA comes in...you know "Buddy, buddy,
  buddy...," the music that is played is quite different, so watch out! *

Intro:

G:-----------------
D:-----------------
A:---------4---4-5-
E:-4-5-5-5---5-----


Verse:

G:------------------------------
D:---------0--------------------
A:--------(5)--2--------4---4-5-
E:-0-0-0-0----5-5-5---5---------

(Optional, that is an alternative way to play the slap/pluck part)

Pre Chorus:

G:------------------------
D:------------------------
A:--------------4-5-5-5-5-
E:-4-5-5-5-5--------------


Part where SA should be but isn't:

G:--------------------------------------------------------------
D:-----------6-4-2----------------------------------------------
A:-------2-5--------5--4-5--4-2-4------4-----5-4-----4-3--4-----
E:-0-4-5---------------------------5-5---5-5----3-5---------2-5-

G:-----------------------
D:---------7-7-5---------
A:--5--5-7---------------
E:---------------7--5--8-


== Last Updated:  November 23, 1997 ==
            
Tabs too difficult? Try these video lessons and learn fast.


comments powered by Disqus
↑ Back to top | Tablatures and chords are parodies/interpretations of the original songs. You may use it for private study, scholarship, research or language learning purposes only