>
 >
 >
Nutsymptom

Nutsymptom Guitar Tabs

311 - Nutsymptom chords, tabs, tablatures, lyrics

Guitar lessons | Add/correct | Request | Top 50 tabs Artists:  A B C D E F G H I J K L M N O P Q R S T U V W X Y Z 0-9

Nutsymptom Guitar Tabs – 311

CD, Sheet music, Poster

Do you like Nutsymptom? Share with your friends now
Bass TabsBass Tabs v3Bass Tabs v2Tabs
'Nutsymtom'
Performed by 311
Music by:  T. Mahoney, C. Sexton, N. Hexum & A. Wills
Lyrics by:  N. Hexum & D. Martinez
(c) 1994 Allegiance Music/Hydroponic Music BMI
---------------


Riff 1 (w/Heavy Distortion):
============================
   F#5 G5 E5
1:-------------------|
2:-------------------|
3:-------------------|
4:-4---5--2--2--2--2-|
5:-4---5--2--2--2--2-|
6:-2---3--0--0--0--0-|

Riff 2 (w/Distortion):
======================
   E5(add C)
1:-7-7-7-7-7---7-7-7-7-7---7-7-7-7-7---7-7-7-7-7---7-7-7-7-7-|
2:-5-5-5-5-5---5-5-5-5-5---5-5-5-5-5---5-5-5-5-5---5-5-5-5-5-|
3:-5-5-5-5-5---5-5-5-5-5---5-5-5-5-5---5-5-5-5-5---5-5-5-5-5-|
4:-----------------------------------------------------------|
5:-----------------------------------------------------------|
6:-----------------------------------------------------------|

Riff 3 (w/Distortion):
======================
   N.C.           E7  G6
1:----------------0---0///12-12-12-12-12-12-12-|
2:----------------0---0///12-12-12-12-12-12-12-|
3:----------------7---0///12-12-12-12-12-12-12-|
4:---1---2---3----6----------------------------|
5:-2---3---4---5--7----------------------------|
6:----------------0----------------------------|
  |  w/octaver  |

Solo:
=====
   N.C.
1:-14h15p14h15p14h15p14h15p14h15p14h15-17--14h15p14--14h15p14-----14h15p14-|
2:------------------------------------------------------------17-----------|
3:-------------------------------------------------------------------------|
4:-------------------------------------------------------------------------|
5:-------------------------------------------------------------------------|
6:-------------------------------------------------------------------------|

1:--------------------------------------b19b-b19b-b19b19b-------|
2:-17-15-14----14-----------------------------------------17///-|
3:----------16----16-14-14-14h16p14///--------------------------|
4:--------------------------------------------------------------|
5:--------------------------------------------------------------|
6:--------------------------------------------------------------|

1:------------------------------------------10p9----------------------|
2:---------------------------------------10------10-------10-10h12p10-|
3:------------------------------9--11-12------------11h12-------------|
4:---------------------9--11-12---------------------------------------|
5:------------9--10-12------------------------------------------------|
6:-0--9-10-12---------------------------------------------------------|

1:-----------------------------9-10p9-------9----------------------|
2:-12--------------------10-12--------12-10---12-10----------10h12-|
3:----12-11--------11-12----------------------------12-11h12-------|
4:----------12--12-------------------------------------------------|
5:-----------------------------------------------------------------|
6:-----------------------------------------------------------------|

1:-10p9-------9-----------14--------------14--------------14--------------|
2:------12-10---12-10///-----15-12-----------15-12-----------15-12-12//14-|
3:---------------------------------12///-----------12///------------------|
4:------------------------------------------------------------------------|
5:------------------------------------------------------------------------|
6:------------------------------------------------------------------------|

1:-------14----------------------14-15-17-17//19-17-15-14--15-14--15-14///-|
2:-14-14----15--12//14-14-14-14--------------------------------------------|
3:-------------------------------------------------------------------------|
4:-------------------------------------------------------------------------|
5:-------------------------------------------------------------------------|
6:-------------------------------------------------------------------------|

1:-------------14-15--16-17-16-15-14///--b18b-b18b--b18b-b18b-b18b-|
2:-14-15-16-17-----------------------------------------------------|
3:-----------------------------------------------------------------|
4:-----------------------------------------------------------------|
5:-----------------------------------------------------------------|
6:-----------------------------------------------------------------|

1:-21p18----b18b-b19b19b--19-21-22-21-19-b22b-b22bp19-22-b22bp19-22-21-19-|
2:-------21---------------------------------------------------------------|
3:------------------------------------------------------------------------|
4:------------------------------------------------------------------------|
5:------------------------------------------------------------------------|
6:------------------------------------------------------------------------|

1:-18-17-15----15-17-18-17p15----15-----------------11----12----13----16//-|
2:----------18----------------18----18-17-18///--12----13----14----15-17//-|
3:-------------------------------------------------------------------------|
4:-------------------------------------------------------------------------|
5:-------------------------------------------------------------------------|
6:-------------------------------------------------------------------------|

1:----14-17-----14-17-----14-17-----14-17-----17-16-14----------|
2:-15--------15--------15--------15--------15----------17-15-14-|
3:--------------------------------------------------------------|
4:--------------------------------------------------------------|
5:--------------------------------------------------------------|
6:--------------------------------------------------------------|

1:-----------------------------|
2:-----------------------------|
3:-16-14--------------///-2--0-|
4:-------17-15-14-----///-2--0-|
5:-----------------------------|
6:-----------------------------|





Comments


Popular 311 tabs & chords
Beyond The Grey Sky Bass Tabs
Down Bass Tabs
Paradise Bass Tabs
Strong All Along 1 Bass Tabs
Taiyed 1 Bass Tabs
Wake Your Mind Up 2 Bass Tabs
White Man In Hammersmith Palais 3 Bass Tabs
I Like The Way Tabs
Jackpot Intro Tabs
Dont Stay Home Ukulele


Song lyrics



↑ Back to top | Tablatures and chords are parodies/interpretations of the original songs. You may use it for private study, scholarship, research or language learning purposes only
© 2014 AZChords.com Contact us | Privacy policy | DMCA | Add/correct tabs | Request tabs | Top 50 tabs