» »

/0-9/311-tabs-28.html

»

Never Ending Summer Tabs (ver.1)

Artists:  A B C D E F G H I J K L M N O P Q R S T U V W X Y Z # 

Never Ending Summer Tabs (ver.1)

311
Rating:
0/5 (0 votes)

Hard to play? Try these video lessons and learn fast.
                311 - 'Never Ending Summer'
Standard Tuning


A great heavy 311 sound & a solo by Tim Mahoney make this a song
to listen to. Please rate or comment.


Verse (0:14 with Heavy Distortion) 
e|-----------------------------|----------------------------|
B|-----------------------------|----------------------------|
G|-----------------------------|----------------------------|
D|-----------------------------|----------------------------|
A|-----------------------------|----------------------------|
E|-0-0---0-4---0---0---0-4---5-|-0---0-4---x--x--0h2---0h2--|

e|-----------------------------|----------------------------|
B|-----------------------------|----------------------------|
G|-----------------------------|----------------------------|
D|-----------------------------|----------------------------|
A|-----------------------------|-----------------2-2---2-2--|
E|-0-0---0-4---0---0---0-4---5-|-0---0-4---x--x-------------|

e|-----------------------------|----------------------------|
B|-----------------------------|----------------------------|
G|-----------------------------|----------------------------|
D|-----------------------------|----------------------------|
A|-----------------------------|----------------------------|
E|-0-0---0-4---0---0---0-4---5-|-0---0-4---x-x---0h2---0h2--|

e|-----------------------------|----------------------------|
B|-----------------------------|----------------------------|
G|-----------------------------|----------------------------|
D|-----------------------------|----------------------4-2-1-|
A|-----------------------------|----------------2-2---------|
E|-0-0---0-4---0---0---0-4---5-|-0---0-4---x-x--------------|



PreChorus

   C#    E5   C#     E5    F#5             Bb5 B5  C5  
e|-----------------------|-----------------------------|
B|-----------------------|-----------------------------|
G|-----------------------|-----------------------------|
D|--------2-2--------2-2-|-4-----x-x-x-x-x-------------|
A|-4------2-2-4------2-2-|-4-----x-x-x-x-x-1---2---3---|
E|-4------0-0-4------0-0-|-2-----x-x-x-x-x-1---2---3---|

e|-----------------------|-----------------------------|
B|-----------------------|-----------------------------|
G|-----------------------|-----------------------------|
D|--------2-2--------2-2-|-4-----x-x-x-x-x-------------|
A|-4------2-2-4------2-2-|-4-----x-x-x-x-x-1-----2-----|
E|-4------0-0-4------0-0-|-2-----x-x-x-x-x-1-----2-----|

e|-----------------------|-----------------------------|
B|-----------------------|-----------------------------|
G|-----------------------|-----------------------------|
D|--------2-2--------2-2-|-4-----x-x-x-x-x-------------|
A|-4------2-2-4------2-2-|-4-----x-x-x-x-x-1---2---3---|
E|-4------0-0-4------0-0-|-2-----x-x-x-x-x-1---2---3---|

e|-----------------------|--------------------------|
B|-----------------------|--------------------------|
G|-----------------------|--------------------------|
D|--------2-2--------2-2-|-4----------4-5-----------|
A|-4------2-2-4------2-2-|-4----------4-5-----------|
E|-4------0-0-4------0-0-|-2----------2-3-----------|



Chorus -    play 3x
e|---------------------------------|---------------------------------|
B|---------------------------------|---------------------------------|
G|---------------------------------|---------------------------------|
D|-6-6-6-----6---6-6-6-6-----6---5-|-4-4-4-----4---4-4-4-4-----4---5-|
A|-6-6-6-----6---6-6-6-6-----6---5-|-4-4-4-----4---4-4-4-4-----4---5-|
E|-4-4-4-----4---4-4-4-4-----4---3-|-2-2-2-----2---2-2-2-2-----2---3-|


Chorus Ending
e|--------------------------------|---------------------------|
B|--------------------------------|---------------------------|
G|--------------------------------|---------------------------|
D|-6-6-6-----6---6-6-6-6-----6----|-----6-5-4-----4-3-2-------|
A|-6-6-6-----6---6-6-6-6-----6----|-----6-5-4-----4-3-2-------|
E|-4-4-4-----4---4-4-4-4-----4----|-----4-3-2-----2-1-0-------|



Play Verse Again

Play Chorus Again

Bass Solo



Bridge Guitar Part (w/ echo, phaser. Volume pedal decreases then increases)

   Eb_m
e|-6--6--6--6--6--6--6--6--|
B|-7--7--7--7--7--7--7--7--|
G|-8--8--8--8--8--8--8--8--|
D|-------------------------| play 4x
A|-------------------------|
E|-------------------------|


Now, time for the greatest solo by Tim Mahoney! Really, he can shred!

   Solo (Mahoney)                                                  
e|---------11-------------|--------------------------------|-16b18r16-14-16b18~~--18\-|
B|-14b16~----14p11-14b16~-|-14b16r14b16r14b16r14-----------|--------------------------|
G|------------------------|----------------------11~---x\--|--------------------------|
D|------------------------|--------------------------------|--------------------------|
A|------------------------|--------------------------------|--------------------------|
E|------------------------|--------------------------------|--------------------------|
 |
 | Rhythm Guitar (Hexum)
e|--------------------------|------------------------------|--------------------------|
B|--------------------------|------------------------------|--------------------------|
G|-8-----------8-8--------6-|-8------------8-8---------6---|-8-----------8-8--------6-|
D|-8--------6--8-8--6-8-9---|-8--------6---8-8---6-8-9-----|-8--------6--8-8--6-8-9---|
A|-6----8-9----6-6----------|-6----8-9-----6-6-------------|-6----8-9----6-6----------|
E|--------------------------|------------------------------|--------------------------|


   Solo
e|---------------------------------|--------------------------------|
B|-7-6---6-------------------------|--------------------------------|
G|-----8---8-6-8-6---8-6---6-------|--------------------------------|
D|-----------------9-----9---9-8-9-|-6---6------------------------6-|
A|---------------------------------|---9---9-8-9-8---6------6-8-9---|
E|---------------------------------|---------------9----------------|
 |
 | Rhythm/Harmony 
e|---------------------------------|--------------------------------|
B|---------------------------------|--------------------------------|
G|-8-6---6-------------------------|-8---------------8-8----------6-|
D|-----9---9-8-9-8-6-9-8-6-8-6---6-|-8-----------6---8-8----6-8-9---|
A|-----------------------------9---|-6-------8-9-----6-6------------|
E|---------------------------------|--------------------------------|


   Solo
e|-----------------------------------|-11-----11-13--11-13-14-13h14p13-14-14p13p11-13-14-|
B|-------------------6---7--11-12-14-|---12-14-----14------------------------------------|
G|-----6---------8-------------------|---------------------------------------------------|
D|-------9---8-----------------------|---------------------------------------------------|
A|-6-8-------------------------------|---------------------------------------------------|
E|-----------------------------------|---------------------------------------------------|
 |
 | Rhythm
e|-----------------------------------|--------------------------------|
B|-----------------------------------|--------------------------------|
G|-8--------------8--8------------6--|-8--------------8-8---------6---|
D|-8----------6---8--8---6--8--9-----|-8----------6---8-8---6-8-9-----|
A|-6----8--9------6--6---------------|-6----8--9------6-6-------------|
E|-----------------------------------|--------------------------------|


   Solo
e|-14-13-11-13-11--11-----------------------------------------------|
B|---------------14--14-12-14-12-11-12-11--11-----------------------|
G|---------------------------------------13--13-11-13-11-10-11-10---|
D|---------------------------------------------------------------11-|
A|------------------------------------------------------------------|
E|------------------------------------------------------------------|
 |
 | Rhythm
e|-----------------------------------------------------------------|
B|-----------------------------------------------------------------|
G|-8---6-------6---------------------------------------------------|
D|---------9-------9---8---9---8---6---9---8---6---8---6-------6---|
A|---------------------------------------------------------9-------|
E|-----------------------------------------------------------------|


   Solo
e|-------------------------------------|----------------------------------|
B|-11--x-x-x--13p11-13p11--x-x-x-x-x-x-|-------x-x-13p11-13-13b14r13\-----|
G|-11--x-x-x--13p11-13p11--x-x-x-x-x-x-|-------x-x-13p11-13-13b14r13\-----|
D|-------------------------------------|-11h13----------------------------|
A|-------------------------------------|----------------------------------|
E|-------------------------------------|----------------------------------|
 |
 | Rhythm
e|-----------------------------------|
B|-----------------------------------|
G|-8---8-8-8-8-8---8-8---8-8-8-8-8-8-|
D|-8---8-8-8-8-8---8-8---8-8-8-8-8-8-|  <- play this 4x, but stop with Solo at end
A|-6---6-6-6-6-6---6-6---6-6-6-6-6-6-|
E|-----------------------------------|
       pm*******         pm*********

e|--------------------------------|-14p13p11-------------------------------|
B|----------------14b15-----------|---------14p12p11-11h12p11--------------|
G|--------------------------------|--------------------------13p11p10-11~--|
D|-11h13-13TP---------------------|----------------------------------------|
A|--------------------------------|----------------------------------------|
E|--------------------------------|----------------------------------------|


Play Chorus again 2x and end on G#

Ending
e|--------
B|--------
G|--------
D|--6-----
A|--6-----
E|--4-----


Key
| /   slide up
| \   slide down
| h   hammer-on
| p   pull-off
| ~   vibrato
| x   Mute note
| pm  palm mute
| TP  tremelo pick 
            
Hard to play? Try these video lessons and learn fast. | Correct




comments powered by Disqus
↑ Back to top | Tablatures and chords are parodies/interpretations of the original songs. You may use it for private study, scholarship, research or language learning purposes only