» »

/0-9/311-tabs-28.html

»

311, Evolver - Secret Track Bass tabs (ver.1)

Artists:  A B C D E F G H I J K L M N O P Q R S T U V W X Y Z # 

Evolver - Secret Track Bass tabs (ver.1)

311 Tabs
 Rating:
4/5 (4 votes)
Evolver - Secret Track lessons Tabs too difficult? Try these video lessons and learn fast
                Track: Secret Track (end of Sometimes Jacks Rule the Realm)

This little bass riff starts at 5:21 into Sometimes Jacks Rule the Realm, at the end of the new
311.  I decided to tab it out because, well, it's fun as hell to play and great to chill and listen
to.

Not sure what the tuning is for the cd but only the top 3 strings are used for this song.



G|-------17-------17--------12----12h14p12----12-------17-------17--------12----14--------------
D|----17-------17--------14----------------14-------17-------17--------14-----------------------
A|-15-------14-------12--------12----------------15-------14-------12--------12-----------------
E|----------------------------------------------------------------------------------------------  x2


G|-------17----19----17-------17-16-14-12-----------------14--12--------------------------------
D|----17----------------------------------14-14h15p14------------14-12-14-14-15-15-14--14-------
A|-15-------15----15----15-14-------------------------12----------------------------------12-14-
E|----------------------------------------------------------------------------------------------  x2


G|-------17-------17--------12----12h14p12----12-------17-------17--------12----14--------------
D|----17-------17--------14----------------14-------17-------17--------14-----------------------
A|-15-------14-------12--------12----------------15-------14-------12--------12-----------------
E|----------------------------------------------------------------------------------------------  x2


G|-------17----19----17-------17-16-14-12-----------------14--12--------------------------------
D|----17----------------------------------14-14h15p14------------14-12-14-14-15-15-14--14-------
A|-15-------15----15----15-14-------------------------12----------------------------------12-14-
E|----------------------------------------------------------------------------------------------  x2


G|-------17-------17---------------17-------17------14-12----------------------17-------17------
D|----17-------17---------------17-------17---------------15-12h14-14-15----17-------17---------
A|-15-------14-------12------15-------14-------12------------------------15-------14-------12---
E|----------------------------------------------------------------------------------------------


G|-17--14--16-
D|------------
A|-15--12--14-
E|------------


I'm very confident that this tab is correct.  Please post comments, questions, corrections, etc.

Enjoy!
            
Submit corrections

comments powered by Disqus
↑ Back to top | 311 Bass for Evolver - Secret Track. Lyrics for acoustic guitar and electric guitar. Tablatures and chords are parodies/interpretations of the original songs. You may use it for private study, scholarship, research or language learning purposes only