» »

/0-9/311-tabs-28.html

»

311, Don't Dwell Tabs (ver.1)

Artists:  A B C D E F G H I J K L M N O P Q R S T U V W X Y Z # 

Don't Dwell Tabs (ver.1)

311 Tabs
 Rating:
4/5 (4 votes)
Don't Dwell lessons Tabs too difficult? Try these video lessons and learn fast
                Tuning: Standard (E A D G B E)



Intro/Main Riff (w/ slight palm muting):

E|-------------------------------------------------------------------||
B|-------------------------------------------------------------------||
G|-------------------------------------------------------------------||
D|-------------------------------------------------------------------||
A|-----x-5-2--x-5-2--0-0-0-0h2------x-5-2--x-5-2--x-3-3--------------||
E|-0h3-------------------------0h3-----------------------------------||

Riff 2 (also during verse):

E|-------------------------------------------------------------------||
B|-------------------------------------------------------------------||
G|-------------------------------------------------------------------||
D|-------------------------------------------------------------------||
A|-------0------0-------0--------0-------0-------0-------------------||
E|-0h3-x---3---x---3--3----0h3-x---3---x---3---3---------------------||

Lead-in To Chorus:

E|---------------------------------||
B|---------------------------------||
G|-2--4--5-5-5-5--7-7---7---7------||
D|-2--4--5-5-5-5--7-7---7---7------||
A|-0--2--3-3-3-3--5-5---5---5------||
E|---------------------------------||

Chorus:

E|------7---10-7------10-8-7-6-----6-----6----6------------------||
B|----8---8------8-8~---------------------------8----------------||
G|-/9--------------------------8-8---8-8---8-8----8-7~--77777777-||
D|---------------------------------------------------------------||
A|---------------------------------------------------------------||
E|---------------------------------------------------------------||

Bridge:


E|---------------------------------||
B|---------------------------------||
G|-------------4--4--5--5----------||
D|-5--5--7--7--4--4--5--5----------||
A|-5--5--7--7--2--2--3--3----------||
E|-3--3--5--5----------------------||

Ending Riff:


E|---------------------------------||
B|-5-5-5-5-4-4-4-4-----------------||
G|-5-5-5-5-5-5-5-5--4~-------------||
D|-5-5-5-5-5-5-5-5--5~-------------||
A|-3-3-3-3-3-3-3-3--5~-------------||
E|------------------3~-------------||

Song Order:
Intro/Main Riff x4
Riff 2 x1
Intro Main Riff x1
First Half of Riff 2 x1
Lead-in To Chorus x1
Chorus x1
Intro/Main Riff x3
Riff 2 x1
Intro/Main Riff x1
First Half of Riff 2 x1
Lead-in To Chorus
Chorus x1
Intro/Main Riff x1
Bridge x3
Ending Riff x1
Bridge x3
Ending Riff x1
            
Submit corrections

comments powered by Disqus
↑ Back to top | 311 Tabs for Don't Dwell. Lyrics for acoustic guitar and electric guitar. Tablatures and chords are parodies/interpretations of the original songs. You may use it for private study, scholarship, research or language learning purposes only