» »

/0-9/311-tabs-28.html

»

Blizza Bass tabs (ver.1)

Artists:  A B C D E F G H I J K L M N O P Q R S T U V W X Y Z # 

Blizza Bass tabs (ver.1)

311
Rating:
0/5 (0 votes)

Hard to play? Try these video lessons and learn fast.
                Bassist: P-Nut
Tuning: B-E-A-D-G

Whole Song:
G|-------------------------------------------------------|
D|-------------------------------------------------------|
A|--2-2-------2-2-----2---------------------------3-1-1--|
E|----------2-----------0-0-----0-0---0-0-1-1------------|
B|-------------------------------------------------------|

G|---------------------------|
D|---------------------------|
A|------6-5---------4-3------|
E|----6-----5-----4-----3----|
B|--4---------3-2---------1--|

G|-------------------------------------------------------|
D|-------------------------------------------------------|
A|--2-2-------2-2-----2---------------------------3-1-1--|
E|----------2-----------0-0-----0-0---0-0-1-1------------|
B|-------------------------------------------------------|

G|---------------------------|
D|---------------------------|
A|------6-5---------4-3------|
E|----6-----5-----4-----3----|
B|--4---------3-2---------1--|

G|-------------------------------------------------------|
D|-------------------------------------------------------|
A|--2-2-------2-2-----2---------------------------3-1-1--|
E|----------2-----------0-0-----0-0---0-0-1-1------------|
B|-------------------------------------------------------|

G|------------------------------|
D|------------------------------|
A|------6-5---------4-3---------|
E|----6-----5-----4-----3---4~--|
B|--4---------3-2---------1-----|
            
Hard to play? Try these video lessons and learn fast. | Correct




comments powered by Disqus
↑ Back to top | Tablatures and chords are parodies/interpretations of the original songs. You may use it for private study, scholarship, research or language learning purposes only