» »

/0-9/311-tabs-28.html

»

Beyond The Gray Sky Bass tabs (ver.1)

Artists:  A B C D E F G H I J K L M N O P Q R S T U V W X Y Z # 

Beyond The Gray Sky Bass tabs (ver.1)

311
Rating:
0/5 (0 votes)

Hard to play? Try these video lessons and learn fast.
                311 - Beyond The Gray Sky
5 String Bass Standard Tuning


A Very heavy sounding 311 song from Evolver. Probably one of their best songs 
musically, with several great solo passsages by Tim Mahoney and the bass part 
is in the 'pocket' throughout. Please rate/comment



Intro Solo/Main Riff - offset rhythm, first 3 notes are during previous bar

G|-----6-------------|-------------|
D|-4h6----------3-3--|-1-----------|
A|-------4------4-4--|-2-----------|
E|-------------------|-------------|
B|-------------------|-------------|

During Verse 1, play main Riff 4x


Verse riff 2
G|------------------|-----------------|
D|------------------|-----------------|
A|------------------|-----------------|
E|----------------4-|-----------------|
B|-2-------2--------|-0-0-0-0-0-0-0-0-|



Solo Break 2 (0:52) - play Main Riff Again



Play Verse Riff 2 again similarly with SA's lyrics


Solo Break 3 - Same as before


Prechorus (1:32)
G|-----------------|------------------|-----------------|------------------|
D|-----------------|------------------|-----------------|------------------|
A|-----------------|------------------|-----------------|------------------|
E|-------------2---|-4---2------------|-------------2---|------------------|
B|-2--/4---5-------|---------5---4--2-|-2--/4---5-------|-5---4---2---4--2-|

G|-----------------|------------------|-----------------|-----------------|
D|-----------------|------------------|-----------------|-----------------|
A|-----------------|------------------|-----------------|-----------------|
E|-------------2---|-4---2-------2----|-------------2---|-----------------|
B|-2--/4---5-------|---------5------2-|-2--/4---5-------|-5---4---2---4---|



Chorus - play last 2 bars 3x 
G|----------------|-------------||------------------|----------------||
D|----------------|-------------||------------------|----------------||
A|----------------|-------------||------------------|----------------||
E|----------------|-------------||------------------|----------------||
B|--------2-2---0-|-0-----------||-0h2------2-2---0-|-0--------------||



Solo break 4 - Play Main Riff Again (8 bars)


Verse 2 (SA Martinez) - Play Prechorus


Play Chorus Again (2:43), repeat chorus during solo for 16 bars




Ending (3:31) - play 3x

G|--------------|---------------|------------|----------------|
D|--------------|---------------|------------|----------------|
A|--------------|---------------|------------|----------------|
E|-0------------|-2-2-------2-0-|------------|----------------|
B|--------------|---------------|-2----------|-5---2---5-2-0--|

G|--------------|---------------|------------|
D|--------------|---------------|------------|
A|--------------|---------------|------------|
E|-0------------|-2-2-------2-0-|------------|
B|--------------|---------------|-2----------| hold out last note

Key:
/ = slide
h = hammer-on
            
Hard to play? Try these video lessons and learn fast. | Correct




comments powered by Disqus
↑ Back to top | Tablatures and chords are parodies/interpretations of the original songs. You may use it for private study, scholarship, research or language learning purposes only