>
 >
 >
And A Ways To Go

And A Ways To Go Guitar Tabs

311 - And A Ways To Go chords, tabs, tablatures, lyrics

Guitar lessons | Add/correct | Request | Top 50 tabs Artists:  A B C D E F G H I J K L M N O P Q R S T U V W X Y Z 0-9

And A Ways To Go Guitar Tabs – 311

CD, Sheet music, Poster

Do you like And A Ways To Go? Share with your friends now
Bass TabsTabs
311 - "And a Ways to Go"
Standard Tuning

This song really has a variety of intensity in the mellow and heavier 
riffs and a nice bass solo as well. Please rate/comment.


Intro/Main Riff - How its played live

e|----0------0------0--------0----|----0------0------0-----0---0---|
B|----5------5------5--------5----|----5------5------5-----5---5---|
G|----5------5------5--------5----|----5------5------5-----5---5---|
D|--------------------------------|--------------------------------|
A|--------------------------------|--------------------------------|
E|--8------8---8-6-----6--6-----6-|-8-------8---8-6-----6----------|

1 "Searching   for       something,   a million miles and a ways to go"
2 "Ending     up         wondering    moments   I   think i know   the"


Riff 2 (0:30)
e|--------------------------|
B|--------------------------|
G|------5-----5-----5--7--5-|
D|----5----8-----5----------|
A|-8------------------------|
E|--------------------------|
  "answer  seems to elude me" 



Play Main Riff Again - Lyrics

"Searching for something
A million miles and a ways to go
Sifting through nothing
The sand you cannot hold"



Play Riff 2 Again, with Main riff mixed in -

"Destination Nowhere Oooooo"



Solo 1 (play with octave/pitch shifter) - Other Guitar plays Main Riff

e|----------------------|---------------------------------------|
B|----------------------|---------------------------------------|
G|------------------7-9-|-10-7-9----7---------------------------|
D|-----------7-8-10-----|--------10---8---10--7h8p7----7--------|
A|----7h8-10------------|---------------------------10---10-8-7-|
E|----------------------|---------------------------------------|

e|--------------------------------|
B|--------------------------------|
G|-10-9-----9-7-----7-------------|
D|------8-------7-----10---7-8-10-|
A|--------------------------------|
E|--------------------------------|




Heavy Riff (SA starts rapping)

e|---------------------------------|-------------------------------|
B|---------------------------------|-------------------------------|
G|---------------------------------|-------------------------------|
D|---------2----------------2---2--|----------2--------------2-3-2~|
A|-3---3-------3---1---1--1---1----|-3-3--3-------3--1--1--1-------|
E|---------------------------------|-------------------------------|



(1:46)
e|---------------------------------|-------------------------------|
B|---------------------------------|-------------------------------|
G|---------------------------------|-------------------------------|
D|---------------------------------|-------------------------------|
A|---------5---4-------------------|---------5---4-----------------|
E|-5---5-----------3---3--3-2-1-0--|-5-5---5--------3---3--3-2-1-0-|



Play Main Riff Again

Main Riff Ending:
e|---------------------------------|
B|---------------------------------|
G|---------------------------------|
D|---------------------------------|
A|-8-8-8-8-8-8-8-8-----------------|
E|-6-6-6-6-6-6-6-6-----------------|
   PM.............



Play Heavy Riff Again


(3:02) - Change to Bass Solo
e|---------------------------|
B|---------------------------|
G|-------------------7-------|
D|-------------------7-------|
A|-------------------5-------|
E|-3--3--3--2--1--0--5-------|



Repeated Guitar Part During Bass Solo (3:23)

e|-----------------|-------------------|
B|-----------------|-------------------|
G|-7-7-7-7-7-7-7-7-|-9-9-11-11-9-9-7-7-|
D|-0-0-0-0-0-0-0-0-|-0-0-0--0--0-0-0-0-|
A|-----------------|-------------------|
E|-----------------|-------------------|

e|-----------------|-----------------|
B|-----------------|-----------------|
G|-4-4-4-4-4-4-4-4-|-5-5-7-7-5-5-4-4-|
D|-0-0-0-0-0-0-0-0-|-0-0-0-0-0-0-0-0-|
A|-----------------|-----------------|
E|-----------------|-----------------|

Lyrics:
"Come on yeah It'll be alright and 
we're gonna take a ride
I don't know if we'll come back"


Ending:
e|----------|
B|----------|
G|--7-------|
D|--7-------|
A|--5-------|
E|--5-------|



KEY
************************************

| /   slide up
| \   slide down
| h   hammer-on
| p   pull-off
| ~   vibrato
| x   Mute note
| b   Bend
| r  Bend release

************************************





Comments


Popular 311 tabs & chords
Champagne Bass Tabs
Creature Feature Bass Tabs
Livin' & Rockin' Bass Tabs
Solar Flare Bass Tabs
1 2 3 Tabs
Daisy Cutter Tabs
Full Ride 1 Tabs
Give Me A Call Tabs
Into The Flame Tabs
Large In The Margin Tabs


Song lyrics



↑ Back to top | Tablatures and chords are parodies/interpretations of the original songs. You may use it for private study, scholarship, research or language learning purposes only
© 2014 AZChords.com Contact us | Privacy policy | DMCA | Add/correct tabs | Request tabs | Top 50 tabs