» » »

30 Seconds To Mars, Ill Attack Tabs (ver.1)

Artists:  A B C D E F G H I J K L M N O P Q R S T U V W X Y Z # 

Ill Attack Tabs (ver.1)

30 Seconds To Mars Tabs
 Rating:
4/5 (4 votes)
Ill Attack lessons Tabs too difficult? Try these video lessons and learn fast
1
                Tuning: standard
        
         Intro:
e|-------------------------------------------------------------------------|
B|-------------------------------------------------------------------------|
G|----------------------------------------------17-------------------------|
D|-------17----18-17-15----18----15-17----15-------------------------------|
A|-------------------------------------------------------------------------|
E|-16-16----16----------16----16-------16----16----16----------------------|

e|-------------------------------------------------------------------------|
B|-------------------------------------------------------------------------|
G|----------------------------------------------17-------------------------|
D|-------17----18-17-15----18----15-17----15-------------------------------|
A|-------------------------------------------------------------------------|
E|-15-15----15----------15----15-------15----15----15----------------------|

e|-------------------------------------------------------------------------|
B|-------------------------------------------------------------------------|
G|-------------------------------------------------------------------------|
D|-------17----18-17-15----18----15-17----15----17-------------------------|
A|-------------------------------------------------------------------------|
E|-13-13----13----------13----13-------13----13----13----------------------|



   guitar riff towards the end of the intro
e|-------------------------------------------------------------------------|
B|-------------------------------------------------------------------------|
G|-13-13-13-13---12-12-12-12-----------------------------------------------|
D|-------------------------------------------------------------------------|
A|-11-11-11-11---10-10-10-10-----------------------------------------------|
E|-------------------------------------------------------------------------|

  another guitar does this
e|-------------------------------------------------------------------------|
B|-------------------------------------------------------------------------|
G|-17-17-x-x-17-17-x-x-17-17-----------------------------------------------|
D|-------------------------------------------------------------------------|
A|-15-15-x-x-15-15-x-x-15-15-----------------------------------------------|
E|-------------------------------------------------------------------------|

   after jared stops screaming
e|-------------------------------------------------------------------------|
B|-------------------------------------------------------------------------|
G|-6-6-6-6---8-8-8-8--10-10-10-10--------------13-13-13-13-13h12-12-12-----|
D|-6-6-6-6---8-8-8-8--10-10-10-10-10-10-10-10------------------------------|
A|-4-4-4-4---6-6-6-6---8--8--8--8-10-10-10-10--11-11-11-11-11h10-10-10-----|
E|---------------------------------8--8--8--8------------------------------|

         thats basically it!!!

| /  slide up
| \  slide down
| h  hammer-on
| p  pull-off
| ~  vibrato
| +  harmonic
| x  Mute note
            
Submit corrections

comments powered by Disqus
↑ Back to top | 30 Seconds To Mars Tabs for Ill Attack. Lyrics for acoustic guitar and electric guitar. 1 Tablatures and chords are parodies/interpretations of the original songs. You may use it for private study, scholarship, research or language learning purposes only