» » »

Capricorn Tabs (ver.3)

Artists:  A B C D E F G H I J K L M N O P Q R S T U V W X Y Z # 

Capricorn Tabs (ver.3)

30 Seconds To Mars
Rating:
0/5 (0 votes)

Hard to play? Try these video lessons and learn fast.
                Tuning Db Ab Db Gb Bb eb

Intro/Bridge: w/ dist
eb|---------------------------------------------------------------------------|
Bb|---------------------------------------------------------------------------|
Gb|---------------------------------------------7-----------------------------|
Db|-0--0--0-6-xxxxx--0-0-6-xx--0-0-6-xxxxx-0-0-0------------------------------|
Ab|-0--0--0-6-xxxxx--0-0-6-xx--0-0-6-xxxxx-0-0-0------------------------------|
Db|-0--0--0-6-xxxxx--0-0-6-xx--0-0-6-xxxxx-0-0-0------------------------------|

eb|---------------------------------------------------------------------------|
Bb|---------------------------------------------------------------------------|
Gb|---------------------------------------------------------------------------|
Db|-0--0--0-6-xxxxx--0-0-6-xx--0-0-6-xxxxxxxxxxxxx----------------------------|
Ab|-0--0--0-6-xxxxx--0-0-6-xx--0-0-6-xxxxxxxxxxxxx----------------------------|
Db|-0--0--0-6-xxxxx--0-0-6-xx--0-0-6-xxxxxxxxxxxxx----------------------------|

Chorus: w/dist
eb|---------------------------------------------------------------------------|
Bb|---------------------------------------------------------------------------|
Gb|------------------------------------------------------------play-----------|
Db|-3-3-3-3--5-5-5-5-5/-6-6-----1-1-1-1--3-3-3-3-3-3------------x2------------|
Ab|-3-3-3-3--3-3-3-3-3/-4-4-----1-1-1-1--1-1-1-1-1-1--------------------------|
Db|-3-3-3-3---------------------1-1-1-1---------------------------------------|

eb|---------------------------------------------------------------------------|
Bb|---------------------------------------------------------------------------|
Gb|---------------------------------------------------------------------------|
Db|-3-3-3-3--5-5-5-5-5/-6-6-----1-1-1-1--3-3-3-3/-6-6-6-----------------------|
Ab|-3-3-3-3--3-3-3-3-3/-4-4-----1-1-1-1--1-1-1-1/-6-6-6-----------------------|
Db|-3-3-3-3---------------------1-1-1-1---------/-6-6-6-----------------------|

Verse: w/clean tone,delay and slow phaser
eb|---------------------------------------------------------------------------|
Bb|-10---12---10---8---12---10------------------------------------------------|
Gb|----9----9----9---9----9----9----------------------------------------------|
Db|---------------------------------------------------------------------------|
Ab|---------------------------------------------------------------------------|
Db|---------------------------------------------------------------------------|
            
Hard to play? Try these video lessons and learn fast. | Correct




comments powered by Disqus
↑ Back to top | Tablatures and chords are parodies/interpretations of the original songs. You may use it for private study, scholarship, research or language learning purposes only