» » »

30 Seconds To Mars, Attack Tabs (ver.4)

Artists:  A B C D E F G H I J K L M N O P Q R S T U V W X Y Z # 

Attack Tabs (ver.4)

30 Seconds To Mars Tabs
Rating:
5/5 (7 votes)
Hard to play? Try these video lessons and learn fast.
                

I tabbed this song in standard tuning. In most of their stuff,
30STM is tuned drop-d down a step. I think that live they tune
down one more half step from that. I'm attempting to tab the
Album version

Synth Loop (intro)

e|-------------------------------8-|-------------------------------8-|
B|-----8---9-8-6---8---6-8---6-----|-----8---9-8-6---8---6-8---6-----|
G|---------------------------------|---------------------------------|
D|-6-6---6-------6---6-----6---6---|-5-5---5-------5---5-----5---5---|
A|---------------------------------|---------------------------------|
E|---------------------------------|---------------------------------|

e|-------------------------------8-|-------------------------------8-|
B|-----8---9-8-6---8---6-8---6-----|-----8---9-8-6---8---6-8---6-----|
G|---------------------------------|---------------------------------|
D|---------------------------------|---------------------------------|
A|-8-8---8-------8---8-----8---8---|-8-8---8-------8---8-----8---8---|
E|---------------------------------|---------------------------------|

Guitar 1 (verse)
Play around with this

e|--------------|
B|--9--8--11--9-|
G|--------------|
D|--------------|
A|--------------|
E|--------------|

Guitar 2 (2nd half of the vers)
...and I am finally FREE
e|--------------|
B|--------------|
G|--13---17-----|
D|--------------|
A|--11---15-----|
E|--------------|

pm............

Chorus
gtr 1 and 2

e|--------------------------------------|
B|------------(9)-----------------------|
G|--6----8-----10----5-----13--12--13---|
D|-(6)--(8)---(10)--(5)-----------------|
A|--4----6-----8-----3--/--11--10--11---|
E|--------------------------------------|

guitar 1 repeats, while

guitar 2

e|------------------------|
B|------------------------|
G|--13------15--------17--|
D|------------------------|
A|--11------13--------15--|
E|------------------------|

That's the whole song. For the breakdown, when just the synth is going,
you can have a guitar chug away at G# G F

Sometimes it sounds like a guitar is doing this during the chorus

e|-----------------------|---------------------------|
B|-----------------------|--(9)----------------------|
G|--6----8----/13--12--8-|--10----5-----13--12--13---|
D|-(6)--(8)--------------|-(10)--(5)-----------------|
A|--4----6----/11--10--6-|---8----3--/--11--10--11---|
E|-----------------------|---------------------------|

The song goes

Intro
Verse
Chorus
Verse
Chorus
Breakdown (Intro Synth part)
Chorus til end
            

comments powered by Disqus
↑ Back to top | 30 Seconds To Mars Tabs for Attack. Lyrics for acoustic guitar and electric guitar. Tablatures and chords are parodies/interpretations of the original songs. You may use it for private study, scholarship, research or language learning purposes only