» » »

30 Seconds To Mars, Attack Chords (ver.1)

Artists:  A B C D E F G H I J K L M N O P Q R S T U V W X Y Z # 

Attack Chords (ver.1)

30 Seconds To Mars Tabs
 Rating:
3.5/5 (8 votes)
Attack lessons Tabs too difficult? Try these video lessons and learn fast
                these chords are out of the official 30 seconds to mars - a beautiful lie album guitar 
so there approved by the band
tuning Eb-Ab-C#-F#-Bb-Eb
enjoy


please note this intro was done on keyboard just imitated for guitar
eb--------------------|----------------9--|
Bb--------9--10-9-7---|--9---7-9---7------|
Gb--------------------|-------------------|
Db----7-7---7-------7-|----7-----7---7----|
Ab--------------------|-------------------|
Eb--------------------|-------------------|

eb--------------------|----------------9--|
Bb--------9--10-9-7---|--9---7-9---7------|
Gb--------------------|-------------------|
Db----6-6---6-------6-|----6-----6---6----|
Ab--------------------|-------------------|
Eb--------------------|-------------------|


eb--------------------|----------------9---- |
Bb--------9--10-9-7---|--9---7-9---7-------- |
Gb--------------------|--------------------- |  \
Db----9-9---9-------9-|----9-----9---9------ |  /  play twice
Ab--------------------|--------------------- |
Eb--------------------|--------------------- |

           A                   A/Ab
I won't suffer, be broken, get tired, or wasted
    F#m
Surrender to nothing, or give up what I
    D                         E
Started and stopped it, from end to beginning
   F#m                    N.C           D
A new day is coming, and I am finally free

\
[D]         E5
Run away, run away, I'll attack
F#m                 C#5
Run away, run away, go change yourself
D           E
Run away, run away, now I'll attack
F#m                  C#5
I'll attack, I'll aa-WHOOOAAAAAAAAA


             A                          A/Ab
I would have kept you, forever, but we had to sever
F#m                       N.C
It ended for both of us, faster than a
D                         E
Kill off this thinking, it's starting to sink in
F#m                        N.C                         D
I'm losing control now, and without you I can finally see


[D]         E5
Run away, run away, I'll attack
F#m                 C#5
Run away, run away, go change yourself
D           E
Run away, run away, now I'll attack
F#m                  C#5
I'll attack, I'll aa-WHOOOAAAAAAAAA


A         A/Ab                     F#m
Your promises, they look like lies
                                         D
Your honesty, like a back that hides a knife (knife)
          E
I promise you (promise you)
             F#m
I promise you (promise you)
N.C
And I am finally free


D             E
Run away, run away, I'll attack
F#m               C#5
Run away, run away, go change yourself
D            E
Run away, run away, now I'll attack
F#m                   C#5
I'll attack, I'll attack, I will attack


D                     E
Run away, I'll attack, I will attack
F#m                   C#5
Run away, I'll attack, I will attack


D              E                   F#m
Run away (Run away), I'll attack (I'll attack)
         C#5
I'll aa-WHOOOAAAAAAAAA

A
A/Ab
   Your promises
F#
(promises, promises)

I promise you
D
(promise you)

I promise you
E
(promise you, promise you)
F#M (HOLD TILL END)

cheers
            
Submit corrections

comments powered by Disqus
↑ Back to top | 30 Seconds To Mars Chords for Attack. Lyrics for acoustic guitar and electric guitar. Tablatures and chords are parodies/interpretations of the original songs. You may use it for private study, scholarship, research or language learning purposes only