» » »

2 Minutos, Amor Suicida Tabs (ver.3)

Artists:  A B C D E F G H I J K L M N O P Q R S T U V W X Y Z # 

Amor Suicida Tabs (ver.3)

2 Minutos Tabs
Rating:
5/5 (3 votes)
Amor Suicida lessons Tabs too difficult? Try these video lessons and learn fast
                 Band :  2 minutos
 From : Mexico  (pachuca, Hgo.)

 Its  song I play with my band
 Tuning: EADGBe

 Intro

  -------------------------------------------------------------------
  ------------------------------------------------------------------- 
  -------------------------------------------------------------------
  --------4----2-4-2----------------4---2-4-2------------------------
  ------5---5- ------3-5--5-5-5---5---5-------3-5--5-5-5-------------
  -------------------------------------------------------------------

  -------------------------------------------------------------------
  -------------------------------------------------------------------
  ------------------------4-----2-4-2----4-----2-4-2-----------------
  ----2-2-4-2-5-5-4-3-5------5---------5---5----------5--------------
  -------------------------------------------------------------------

  -----------------------------
  -----------------------------
  ----------------------------- 
  -----------------7-----------
  --------5--------5-----------
  --------3--------------------

  Main riff
  ------------------------------------------------------------------
  ------------------------------------------------------------------
  ------------------------------------------------------------------
  ---7-7-7-7-7-7-7-7------------------------------------------------
  ---5-5-5-5-5-5-5-5-5-5-5-5-7-7-7-7--------------------------------
  -------------------3-3-3-3-5-5-5-5--------------------------------

  Interlude
  -----------------------------------------------------------------
  -----------------------------------------------------------------  
  -----------------------------------------------------------------
  ---7-7-7-7-7-----------5-5-5-5-5---------------------------------
  ---5-5-5-5-5-5-5-5-5-5-3-3-3-3-3-7-7-7-7-7-----------------------
  -------------3-3-3-3-3-----------5-5-5-5-5-----------------------

  end of interlude
  ---------------
  ---------------
  ---------------
  -----7---------
  -----5---------
  ---------------

  Listen of song by all parts.
  this is my favorite band argentin.
            

comments powered by Disqus
↑ Back to top | 2 Minutos Tabs for Amor Suicida. Lyrics for acoustic guitar and electric guitar. Tablatures and chords are parodies/interpretations of the original songs. You may use it for private study, scholarship, research or language learning purposes only