» » »

Amor Suicida Tabs (ver.1)

Artists:  A B C D E F G H I J K L M N O P Q R S T U V W X Y Z # 

Amor Suicida Tabs (ver.1)

2 Minutos
Rating:
3/5 (2 votes)

Hard to play? Try these video lessons and learn fast.
                2 Minutos
Valentín Alsina (1994)

>>Tablatura Guitarra<<

Intro
e|--------------------------------------------------------|
B|--------------------------------------------------------|
G|--------------------------------------------------------|
D|--0-4-0-2-4-2-0-0-0-0-0-0-0--0-4-0-2-2-4-2--------------|
A|-----------------------------------------------------0--|
E|-------------------------------------------3-3-3-3-3----|

e|---------------------------------------------------------------------|
B|---------------------------------------------------------------------|
G|-----------------------------------------------------------------7~--|
D|----------------0-0-2-4-2-0--0-4-0-2-2-4-2-----------------------7~--|
A|--0-4-0-2-4-2-0--------------------------------------0-0-0-0-0-0-5~--|
E|-------------------------------------------3-3-3-3-3-----------------|

Verso x4
e|--------------------------------------|
B|--------------------------------------|
G|--7777777777777777--------------------|
D|--7777777777777777-55555555-77777777--|
A|--5555555555555555-55555555-77777777--|
E|-------------------33333333-55555555--|

Coro x2
e|---------------------------------------|
B|---------------------------------------|
G|--77777777----------55555555-----------|
D|--77777777-55555555-55555555-77777777--|
A|--55555555-55555555-33333333-77777777--|
E|-----------33333333----------55555555--|

Fin
e|------|
B|------|
G|--7~--|
D|--7~--|
A|--5~--|
E|------|

Verso x4

Coro x2

Verso x5

Coro x2

Verso x4

Fin

facsimilejuan!
            
Hard to play? Try these video lessons and learn fast. | Correct




comments powered by Disqus
↑ Back to top | Tablatures and chords are parodies/interpretations of the original songs. You may use it for private study, scholarship, research or language learning purposes only