» » »

16 Volt, And I Go Tabs (ver.1)

Artists:  A B C D E F G H I J K L M N O P Q R S T U V W X Y Z # 

And I Go Tabs (ver.1)

16 Volt Tabs
 Rating:
4/5 (4 votes)
And I Go lessons Tabs too difficult? Try these video lessons and learn fast
1
                

Guitar Tab (G)


Tuning- C,G,C,F,A,d tuning is my guess...

Well I've looked all over the net for the tab to this song with no luck... so I'm gonna 
it a shot. It's a pretty basic song, the bass follows the same tune as the lead so if 
a bassist the tabs about the same.

legend: x= muted string/ harmonic (gives you that nice scratchy sound, just rest a 
on the string and strum. It may take a lil practice to get it down... but its worth it)

        /= slide (slide from one fret to another)

        #= hammer on (after playing a note, rapidly pushing down on another fret without 
again. Used for fast paced songs)

        (= pull off (while holding down on a fret bend the string in one direction and 
go. Lets you play an open after a fret quickly and with a nice sound. Also good for fast 
songs.)

        ^= bend (bend the string back and forth to get a wah wah effect without a pedal.)

You won't need most of these for this song but they're handy to know and good for your technique.

Verse (after bass and drum intro)
d|---------------------------------------|
A|---------------------------------------|
F|---------------------------------------|
C|---------------------------------------|
G|---------------------------------------|
C|-5-5-5-5-(-0 0 0 0 0 0-----------------|

d|---------------------------------------|
A|---------------------------------------|
F|---------------------------------------|
C|---------------------------------------|
G|---------------------------------------|
C|-0-6-5--0-0-0-0-0-0--------------------|

at end of verse play:
d|---------------------------------------|
A|---------------------------------------|
F|---------------------------------------|
C|---------------------------------------|
G|---------------------------------------|
C|-5-5-5-5-(-0---------------------------|

Chorus
d|--------------------------------------------|
A|--------------------------------------------|
F|--------------------------------------------|
C|--------------------------------------------|
G|--------------------------------------------|
C|-0-0-5-6-/-10--0-6-5--0-6-5-0-3-------------|

Alternatively the chorus can also be played like this. (not sure which is right but I 
this one fits better)
d|-------------------------------------------------|
A|-------------------------------------------------|
F|-------------------------------------------------|
C|-------------------------------------------------|
G|-------------------------------------------------|
C|-0-0-5-6-/-10-0-6-5-0-5-6-/-10-0-3---------------|

Interlude/ bridge
d|--------------------------------------------------------|
A|--------------------------------------------------------|
F|--------------------------------------------------------|
C|--------------------------------------------------------|
G|--------------------------------------------------------|
C|-5-5-5-5--5-5-5--6-6-6-6--2-2-2--0-0-0-0----------------|

d|----------------------------------------|
A|----------------------------------------|
F|----------------------------------------|
C|----------------------------------------|
G|----------------------------------------|
C|-0-0-0-0--9-9-9-9--10-10-10-------------|

Outro
d|--------------------------------------------------------------------------------|
A|--------------------------------------------------------------------------------|
F|--------------------------------------------------------------------------------|
C|--------------------------------------------------------------------------------|
G|-------------------------------------------------------------9-9-9-9-10--10-10--|
C|-9-9-9-9--9-9-9--10-10-10-10-6-6-6--4-4-4-4-------------------------------------|
(The last time you play this part let the last note ring out)

There is also a small part in between the 2nd verse and chorus that I can't quite get so 
anyone can get this part down or has the actual tab please let me know at the email 
so I can add it in. Thanks and have fun \m/
            
Submit corrections

comments powered by Disqus
↑ Back to top | 16 Volt Tabs for And I Go. Lyrics for acoustic guitar and electric guitar. 1 Tablatures and chords are parodies/interpretations of the original songs. You may use it for private study, scholarship, research or language learning purposes only