» » »

16 Volt, And I Go Tabs (ver.2)

Artists:  A B C D E F G H I J K L M N O P Q R S T U V W X Y Z # 

And I Go Tabs (ver.2)

16 Volt Tabs
 Rating:
4/5 (4 votes)
And I Go lessons Tabs too difficult? Try these video lessons and learn fast
                Tuning:      C G C F A D (Drop C)


Duration Legend
---------------
W - whole
H - half
Q - quarter
E - 8th
S - 16th


Tablature Legend
----------------
L - tied note


Most of the song is played off-beat, especially when compared to the drums.


Intro

D--------|-----------------|----------------|-----------------|-----------------|
A--------|-----------------|----------------|-----------------|-----------------|
F--------|-----------------|----------------|-----------------|-----------------|
C--------|-----------------|----------------|-----------------|-----------------|
G--------|-----------------|----------------|-----------------|-----------------|
C--5-5-5-|-5-0---0---0---0-|---0---0---0-6--|-5-0---0---0---0-|---0---0---5-5-5-|
   E E E   E E E E E E E E   E E E E E E Q    E E E E E E E E   E E E E E E E E

D------------------|----------------|-----------------|-----------------|
A------------------|----------------|-----------------|-----------------|
F------------------|----------------|-----------------|-----------------|
C------------------|----------------|-----------------|-----------5-5-5-|
G------------------|----------------|-----------------|-----------5-5-5-|
C--5-0---0---0---0-|---0---0---0-6--|-5-0---0---0---0-|---0---0---5-5-5-|
   E E E E E E E E   E E E E E E Q    E E E E E E E E   E E E E E E E E

D------------------|----------------|-----------------|-----------------|
A------------------|----------------|-----------------|-----------------|
F------------------|----------------|-----------------|-----------------|
C--5-0---0---0---0-|---0---0---0-6--|-5-0---0---0---0-|---0---0---5-5-5-|
G--5-0---0---0---0-|---0---0---0-6--|-5-0---0---0---0-|---0---0---5-5-5-|
C--5-0---0---0---0-|---0---0---0-6--|-5-0---0---0---0-|---0---0---5-5-5-|
   E E E E E E E E   E E E E E E Q    E E E E E E E E   E E E E E E E E

D------------------|----------------|-----------------|-----------------|
A------------------|----------------|-----------------|-----------------|
F------------------|----------------|-----------------|-----------------|
C--5-0---0---0---0-|---0---0---0-6--|-5-0---0---0---0-|---0---0---5-5-5-|
G--5-0---0---0---0-|---0---0---0-6--|-5-0---0---0---0-|---0---0---5-5-5-|
C--5-0---0---0---0-|---0---0---0-6--|-5-0---0---0---0-|---0---0---5-5-5-|
   E E E E E E E E   E E E E E E Q    E E E E E E E E   E E E E E E E E

Verse 1

D------------------|----------------|-----------------|-----------------|
A------------------|----------------|-----------------|-----------------|
F------------------|----------------|-----------------|-----------------|
C--5---------------|----------------|-----------------|-----------------|
G--5---------------|----------------|-----------------|-----------------|
C--5-0---0---0---0-|---0---0---0-6--|-5-0---0---0---0-|---0---0---5-5-5-|
   E E E E E E E E   E E E E E E Q    E E E E E E E E   E E E E E E E E

D------------------|----------------|-----------------|-----------------|
A------------------|----------------|-----------------|-----------------|
F------------------|----------------|-----------------|-----------------|
C------------------|----------------|-----------------|-----------5-5-5-|
G------------------|----------------|-----------------|-----------5-5-5-|
C--5-0---0---0---0-|---0---0---0-6--|-5-0---0---0---0-|---0---0---5-5-5-|
   E E E E E E E E   E E E E E E Q    E E E E E E E E   E E E E E E E E

D------------------|----------------|-----------------|-----------------|
A------------------|----------------|-----------------|-----------------|
F------------------|----------------|-----------------|-----------------|
C--5-0---0---0---0-|---0---0---0-6--|-5-0---0---0---0-|---0---0---5-5-5-|
G--5-0---0---0---0-|---0---0---0-6--|-5-0---0---0---0-|---0---0---5-5-5-|
C--5-0---0---0---0-|---0---0---0-6--|-5-0---0---0---0-|---0---0---5-5-5-|
   E E E E E E E E   E E E E E E Q    E E E E E E E E   E E E E E E E E

D------------------|----------------|-----------------|----------------|
A------------------|----------------|-----------------|----------------|
F------------------|----------------|-----------------|----------------|
C--5-0---0---0---0-|---0---0---0-6--|-5-0---0---0---0-|---0---0---0-6--|
G--5-0---0---0---0-|---0---0---0-6--|-5-0---0---0---0-|---0---0---0-6--|
C--5-0---0---0---0-|---0---0---0-6--|-5-0---0---0---0-|---0---0---0-6--|
   E E E Q   E E E   E E E Q   E Q    E E E Q   E E E   E E E Q   E Q

Chorus

D------------------|----------------|-----------------|----------------|
A------------------|----------------|-----------------|----------------|
F------------------|----------------|-----------------|----------------|
C--0-0-9-10--0-6-5-|-L-0-9-10--0-6--|-0-0-9-10--0-6-5-|-L-0-9-10--0-5--|
G--0-0-9-10--0-6-5-|-L-0-9-10--0-6--|-0-0-9-10--0-6-5-|-L-0-9-10--0-5--|
C--0-0-9-10--0-6-5-|-L-0-9-10--0-6--|-0-0-9-10--0-6-5-|-L-0-9-10--0-5--|
   E E E Q   E E E   E E E Q   E Q    E E E Q   E E E   E E E Q   E Q

D------------------|----------------|-----------------|-----------------|
A------------------|----------------|-----------------|-----------------|
F------------------|----------------|-----------------|-----------------|
C--0-0-9-10--0-6-5-|-L-0-9-10--0-6--|-0-0-9-10--0-6-5-|-L-0-9-10--0-5-5-|
G--0-0-9-10--0-6-5-|-L-0-9-10--0-6--|-0-0-9-10--0-6-5-|-L-0-9-10--0-5-5-|
C--0-0-9-10--0-6-5-|-L-0-9-10--0-6--|-0-0-9-10--0-6-5-|-L-0-9-10--0-5-5-|
   E E E Q   E E E   E E E Q   E Q    E E E Q   E E E   E E E Q   E E E

Verse 2

D------------------|----------------|-----------------|-----------------|
A------------------|----------------|-----------------|-----------------|
F------------------|----------------|-----------------|-----------------|
C--5---------------|----------------|-----------------|-----------------|
G--5---------------|----------------|-----------------|-----------------|
C--5-0---0---0---0-|---0---0---0-6--|-5-0---0---0---0-|---0---0---5-5-5-|
   E E E E E E E E   E E E E E E Q    E E E E E E E E   E E E E E E E E

D------------------|----------------|-----------------|-----------------|
A------------------|----------------|-----------------|-----------------|
F------------------|----------------|-----------------|-----------------|
C------------------|----------------|-----------------|-----------5-5-5-|
G------------------|----------------|-----------------|-----------5-5-5-|
C--5-0---0---0---0-|---0---0---0-6--|-5-0---0---0---0-|---0---0---5-5-5-|
   E E E E E E E E   E E E E E E Q    E E E E E E E E   E E E E E E E E

D------------------|----------------|-----------------|-----------------|
A------------------|----------------|-----------------|-----------------|
F------------------|----------------|-----------------|-----------------|
C--5-0---0---0---0-|---0---0---0-6--|-5-0---0---0---0-|---0---0---5-5-5-|
G--5-0---0---0---0-|---0---0---0-6--|-5-0---0---0---0-|---0---0---5-5-5-|
C--5-0---0---0---0-|---0---0---0-6--|-5-0---0---0---0-|---0---0---5-5-5-|
   E E E E E E E E   E E E E E E Q    E E E E E E E E   E E E E E E E E

D------------------|----------------|-----------------|----------------|
A------------------|----------------|-----------------|----------------|
F------------------|----------------|-----------------|----------------|
C--5-0---0---0---0-|---0---0---0-6--|-5-0---0---0---0-|---0---0---0-6--|
G--5-0---0---0---0-|---0---0---0-6--|-5-0---0---0---0-|---0---0---0-6--|
C--5-0---0---0---0-|---0---0---0-6--|-5-0---0---0---0-|---0---0---0-6--|
   E E E E E E E E   E E E E E E Q    E E E E E E E E   E E E E E E Q

Bridge

D----------------|-----------------|----------------|----------------|
A----------------|-----------------|----------------|----------------|
F----------------|-----------------|----------------|----------------|
C----------------|-----------------|-0-0---0---0-3--|-0-0---0---0-3--|
G----------------|-----------------|-0-0---0---0-3--|-0-0---0---0-3--|
C--5-5--5--5-5-5-|-9--9-9--9-10-10-|-0-0---0---0-3--|-0-0---0---0-3--|
   E Q  Q  E E E   Q  E Q  E E  E    E E E E E E Q    E E E E E E Q

D----------------|------------------|
A----------------|------------------|
F----------------|------------------|
C----------------|------------------|
G----------------|------------------|
C--5-5--5--5-5-5-|-9-9-9-9--9-10-10-|
   E Q  Q  E E E   E E E Q  E E  E

Chorus 2
                                                                          4x
D-||------------------|----------------|-----------------|-----------------||
A-||------------------|----------------|-----------------|-----------------||
F-||*-----------------|----------------|-----------------|----------------*||
C-||*-0-0-9-10--0-6-5-|-L-0-9-10--0-6--|-0-0-9-10--0-6-5-|-L-0-9-10--0-5--*||
G-||--0-0-9-10--0-6-5-|-L-0-9-10--0-6--|-0-0-9-10--0-6-5-|-L-0-9-10--0-5---||
C-||--0-0-9-10--0-6-5-|-L-0-9-10--0-6--|-0-0-9-10--0-6-5-|-L-0-9-10--0-5---||
      E E E Q   E E E   E E E Q   E Q    E E E Q   E E E   E E E Q   E Q

Verse 3
                                                                               8x
D-||------------------|-----------------|-----------------|---------------------||
A-||------------------|-----------------|-----------------|---------------------||
F-||*-----------------|-----------------|-----------------|--------------------*||
C-||*-5-5-5-5-5-5-5-5-|-5-6-6-6-6-2-2-2-|-0-0-0-0-0-0-0-9-|-9-9-9-9-9-10-10-10-*||
G-||--5-5-5-5-5-5-5-5-|-5-6-6-6-6-2-2-2-|-0-0-0-0-0-0-0-9-|-9-9-9-9-9-10-10-10--||
C-||--5-5-5-5-5-5-5-5-|-5-6-6-6-6-2-2-2-|-0-0-0-0-0-0-0-9-|-9-9-9-9-9-10-10-10--||
      E E E E E E E E   E E E E E E E E   E E E E E E E E   E E E E E E  E  E

Outro

D------------------|---------------------|-----------------|-----------------|
A------------------|---------------------|-----------------|-----------------|
F------------------|---------------------|-----------------|-----------------|
C------------------|---------------------|-----------------|-----------------|
G------------------|---------------------|---------------9-|-L-9-9-9-9-7-7-7-|
C--9-9-9-9-9-9-9-9-|-9-10-10-10-10-6-6-6-|-4-4-4-4-4-4-4---|-----------------|
   E E E E E E E E   E E  E  E  E  E E E   E E E E E E E E   E E E E E E E E

D------------------|---------------------|-----------------|--------------------|
A------------------|---------------------|-----------------|--------------------|
F------------------|---------------------|-----------------|--------------------|
C------------------|---------------------|-----------------|--------------------|
G------------------|---------------------|---------------9-|-L-9-9-9-9-10-10-10-|
C--9-9-9-9-9-9-9-9-|-9-10-10-10-10-6-6-6-|-4-4-4-4-4-4-4---|--------------------|
   E E E E E E E E   E E  E  E  E  E E E   E E E E E E E E   E E E E E E  E  E

D------------------|---------------------|-----------------|-----------------|
A------------------|---------------------|-----------------|-----------------|
F------------------|---------------------|-----------------|-----------------|
C------------------|---------------------|-----------------|-----------------|
G------------------|---------------------|---------------9-|-L-9-9-9-9-7-7-7-|
C--9-9-9-9-9-9-9-9-|-9-10-10-10-10-6-6-6-|-4-4-4-4-4-4-4---|-----------------|
   E E E E E E E E   E E  E  E  E  E E E   E E E E E E E E   E E E E E E E E

D------------------|---------------------|-----------------|--------------------|
A------------------|---------------------|-----------------|--------------------|
F------------------|---------------------|-----------------|--------------------|
C------------------|---------------------|-----------------|--------------------|
G------------------|---------------------|---------------9-|-L-9-9-9-9-10-10-10-|
C--9-9-9-9-9-9-9-9-|-9-10-10-10-10-6-6-6-|-4-4-4-4-4-4-4---|--------------------|
   E E E E E E E E   E E  E  E  E  E E E   E E E E E E E E   E E E E E E  E  E

(Let the last note ring)
            
Submit corrections

comments powered by Disqus
↑ Back to top | 16 Volt Tabs for And I Go. Lyrics for acoustic guitar and electric guitar. Tablatures and chords are parodies/interpretations of the original songs. You may use it for private study, scholarship, research or language learning purposes only