» » »

12 Stones, This Dark Day Tabs (ver.2)

Artists:  A B C D E F G H I J K L M N O P Q R S T U V W X Y Z # 

This Dark Day Tabs (ver.2)

12 Stones Tabs
 Rating:
4/5 (4 votes)
This Dark Day lessons Tabs too difficult? Try these video lessons and learn fast
1
                Editor: Notepad!

It's my first real tab, please rate if you like it!
I know it's not in Drop D but this is easier to tune. I usually don't play in other 
than normal or Drop D so... some notes are an octave higher than they actually are.

INTRO (dist)
e---------------------------------- |
B---------------------------------- |
G----11---9-11-----11---9--11b12r11 |
D--9----9------9-9----9------------ |
A---------------------------------- |
D---------------------------------- |

e--------------------------------------------------------- -- |
B--------------------------------------------------------- -- |
G--------------------------------------------------------- -- |
D---\9-9--9-9-------------------9-9--9-9------------------ -- |
A---\9-9--9-9-------9x--4h5p4---9-9--9-9-------9x--4h5p4-- -- |
D---\9-9--9-9---9x9x--9x--------9-9--9-9---9x9x--9x------- -- |
                                                            | 2x
e--------------------------------------------------------- -- |
B--------------------------------------------------------- -- |
G----0-0--0-0-------------------5-5--5-5------------------ -- |
D----0-0--0-0-------7-7-7-7-----5-5--5-5---5-7-4---------- -- |
A----0-0--0-0-----5x------------5-5--5-5------------------ -- |
D----0-0--0-0---0x--------------5-5--5-5------------------ -- |

VERSE (clean) (.=keep strumming)
e--------------------------------------------------------- --- |
B--------------------------------------------------------- --- |
G--11---111111-11\9--999-9\7--777-7\6--666-6\4--444--444.- --- |
D--------------------------------------------------------- --- | 2x
A--9----9-9-9--9-\7--777-7\5--555-5\4--444-4\2--222--222.- --- |
D--------------------------------------------------------- --- |

Pre-Chorus
e--------------------------------------------------------- |
B--------------------------------------------------------- |
G------------------------12--11-12---11-12---11-12---11-12 |
D----------------------9---9-------9-------9-------9------ |
A-2----4-----5-----9-------------------------------------- |
D--------------------------------------------------------- |

Chorus
e--------------------------------------------------------- --- |
B--------------------------------------------------------- --- |
G--------------------------------------------------------- --- |
D--9--9--9--9-\-0--0--0--0--77x77x77x77-77/9\5--5--5--5--- --- | 2x
A--9--9--9--9-\-0--0--0--0--77x77x77x77-77/9\5--5--5--5--- --- |
D--9--9--9--9-\-0--0--0--0--77x77x77x77-77/9\5--5--5--5--- --- |

Repeat second part intro

Second verse
e------------------------------------------------------------------------- |
B------------------------------------------------------------------------- |
G------------------------------------------------------------------------- |
D--9x9x-9x----9x-9x9x9x9x-9x9x----9x9x-9x-9x9x-------------9x-9x9x9x9x-9x- | 2x
A--9x9x-9x----9x-9x9x9x9x-9x9x----9x9x-9x-9x9x--7x7x-5x5x--9x-9x9x9x9x-9x- |
D--9x9x-9x----9x-9x9x9x9x-9x9x----9x9x-9x-9x9x-------------9x-9x9x9x9x-9x- |

Repeat Pre-Chorus + Chorus

Bridge
e---------------------------------------------------------|
B---------------------------------------------------------|
G----------4----------------4-----------------------------|
D--2--2--2---4h5p4--2--2--2---4h5p4--5-5-5-5--0-0-7-7-----|
A--2--2-------------2--2-------------5-5-5-5--0-0-7-7-----|
D--2--2-------------2--2-------------5-5-5-5--0-0-7-7-----|

e---------------------------------------------------------|
B---------------------------------------------------------|
G----------4----------------4-----------------------------|
D--2--2--2---4h5p4--2--2--2---4h5p4--5-5-5-5--0-0-11-11---|
A--2--2-------------2--2-------------5-5-5-5--0-0-11-11---|
D--2--2-------------2--2-------------5-5-5-5--0-0-11-11---|

Solo 2x
e------------------------------------------------------------------|
B------------------------------------------------------------------|
G------------------------------------------------------------------|
D------------------------------------------------------------------|
A------------------------------------------------------------------|
D--9x7x9x7x11x9x11x12x11x12x14x12x14x15x14x15x16x14x16x17x16x17x19x

Then
e------------------------------------------------------------------|
B---------------------3b-------------------------------------------|
G-----7---6-7-----7---5b-------------------------------------------|
D--\4---4-----4-3---4----------------------------------------------|
A------------------------------------------------------------------|
D------------------------------------------------------------------|


Chorus 2x
Intro
            
Submit corrections

comments powered by Disqus
↑ Back to top | 12 Stones Tabs for This Dark Day. Lyrics for acoustic guitar and electric guitar. 1 Tablatures and chords are parodies/interpretations of the original songs. You may use it for private study, scholarship, research or language learning purposes only