» » »

12 Stones, This Dark Day Tabs (ver.1)

Artists:  A B C D E F G H I J K L M N O P Q R S T U V W X Y Z # 

This Dark Day Tabs (ver.1)

12 Stones Tabs
 Rating:
4/5 (4 votes)
This Dark Day lessons Tabs too difficult? Try these video lessons and learn fast
                -------------------------------------------------------------------------------
                             This Dark Day by 12 Stones
-------------------------------------------------------------------------------

Tuning: Drop B
Drop C then down half a step

^ is bend




                         Intro
|--5---3-5-----5---3-5h6p5--------------------------------------------------|
|3---3-----3-3---3----------------------------------------------------------|
|---------------------------------------------------------------------------|
|---------------------------------------------------------------------------|
|---------------------------------------------------------------------------|
|---------------------------------------------------------------------------|
                         Intro Part 2  (X2)
|--------------------------------------------------------------------------------|
|--------------------------------------------------------------------------------|
|-----x-x-x-2---------------x-x-x-2-----------x-x-x-5-5-5--33---x-x-x-3-3-5-5-2-2|
|00-0---------2h3p2----00-0---------2h3p2--33--------------33--------------------|
|00-0------------------00-0----------------33--------------11--------------------|
|00-0------------------00-0----------------33------------------------------------|   
                                                   thats 1 and 1 not 11 btw


Play The Middle B string almost muted                       Verse  
|---------------------------------------------------------------------------|
|---------------------------------------------------------------------------|
|7-77-7-7/9-99-9-9/10-1010-10-10/12-1212-12-12------------------------------|
|5-55-5-5/7-77-7-7/8---8-8--8--8/10-1010-10-10------------------------------|
|5-55-5-5/7-77-7-7/8---8-8--8--8/10-1010-10-10------------------------------|
|---------------------------------------------------------------------------|
             
|---------------------------------------------------------------------------|
|---------------------------------------------------------------------------|
|----10-1010---------------10-1010------------------------------------------|
|7-7---------7-------10-10---------10---------------------------------------|
|--------------7--7-------------------7--7----------------------------------|
|---------------------------------------------------------------------------|
1st part then 2nd part then 1st then 2nd twice and on the 2nd time of the 2nd time this cuts in


                      Pre-Chorus
|--6---4-6-----6---4-6^-----------------------------------------------------|
|3---3-----3-3---3----------------------------------------------------------|
|---------------------------------------------------------------------------|
|---------------------------------------------------------------------------|
|---------------------------------------------------------------------------|
|---------------------------------------------------------------------------|
^ is bend


           Chorus
|----------------------------------------------------------------------------|
|----------------------------------------------------------------------------|
|----------------5-5--5--5-5-5555/7\3-3--3--3-3-3333\2-----------------------|
|0---0---3---3---3-3--3--3-3-3333/5\1-1--1--1-1-1111\2-----------------------|
|0---0---3---3---3-3--3--3-3-3333/5\1-1--1--1-1-1111\0-----------------------|
|0---0---3---3---------------------------------------------------------------|



Tuning: Drop B
Drop C then down half a step

^ is bend
P.M..... is Palm Mute
(underneath the tab for P.M., the dotted part is muted)


                         Intro
|--5---3-5-----5---3-5h6p5--------------------------------------------------|
|3---3-----3-3---3----------------------------------------------------------|
|---------------------------------------------------------------------------|
|---------------------------------------------------------------------------|
|---------------------------------------------------------------------------|
|---------------------------------------------------------------------------|
                         Intro Part 2  (X2)
|--------------------------------------------------------------------------------|
|--------------------------------------------------------------------------------|
|-----x-x-x-2---------------x-x-x-2-----------x-x-x-5-5-5--33---x-x-x-3-3-5-5-2-2|
|00-0---------2h3p2----00-0---------2h3p2--33--------------33--------------------|
|00-0------------------00-0----------------33--------------11--------------------|
|00-0------------------00-0----------------33------------------------------------|   
                                                   thats 1 and 1 not 11 btw


Play The Middle B string almost muted                       Verse  
|---------------------------------------------------------------------------|
|---------------------------------------------------------------------------|
|7-77-7-7/9-99-9-9/10-1010-10-10/12-1212-12-12------------------------------|
|5-55-5-5/7-77-7-7/8---8-8--8--8/10-1010-10-10------------------------------|
|5-55-5-5/7-77-7-7/8---8-8--8--8/10-1010-10-10------------------------------|
|---------------------------------------------------------------------------|
             
|---------------------------------------------------------------------------|
|---------------------------------------------------------------------------|
|----10-1010---------------10-1010------------------------------------------|
|7-7---------7-------10-10---------10---------------------------------------|
|--------------7--7-------------------7--7----------------------------------|
|---------------------------------------------------------------------------|
1st part then 2nd part then 1st then 2nd twice and on the 2nd time of the 2nd time this cuts in


                      Pre-Chorus
|--6---4-6-----6---4-6^-----------------------------------------------------|
|3---3-----3-3---3----------------------------------------------------------|
|---------------------------------------------------------------------------|
|---------------------------------------------------------------------------|
|---------------------------------------------------------------------------|
|---------------------------------------------------------------------------|
^ is bend


           Chorus
|---------------------------------------------------------------------------|
|---------------------------------------------------------------------------|
|----------------5-5--5--5-5-5555/7\3-3--3--3-3-3333\2----------------------|
|0---0---3---3---3-3--3--3-3-3333/5\1-1--1--1-1-1111\2----------------------|
|0---0---3---3---3-3--3--3-3-3333/5\1-1--1--1-1-1111\0----------------------|
|0---0---3---3--------------------------------------------------------------|


              Bridge (X2)
|---------------------------------------------------------------------------|
|--------33---------------33------------------------------------------------|
|------22--2h3p2--------22--2h3p2--3-3/10-10\3-3----------------------------|
|00-0--------------00-0------------1-1/8--8-\1-1----------------------------|
|00-0--------------00-0------------1-1/8--8-\1-1----------------------------|
|00-0--------------00-0-----------------------------------------------------|


           Bridge Part 2 (X2)
There is a slight bend on 10
|---------------------------------------------------------------------------|
|---------------------------------------------------------------------------|
|---------------------------------------------------------------------------|
|---------3h5-5h7-7h8-8h10--3--3--2--2--------------------------------------|
|-5h7-7h8-------------------3--3--2--2--------------------------------------|
|0---0---0---0---0---0------3--3--2--2--------------------------------------|
P.M......................

Then Chorus then Intro Twice!


| /  slide up
| \  slide down
| h  hammer-on
| p  pull-off
| ~  vibrato
| +  harmonic
| x  Mute note
===============================================================================
            
Submit corrections

comments powered by Disqus
↑ Back to top | 12 Stones Tabs for This Dark Day. Lyrics for acoustic guitar and electric guitar. Tablatures and chords are parodies/interpretations of the original songs. You may use it for private study, scholarship, research or language learning purposes only