» » »

12 Stones, The Way I Feel Tabs (ver.2)

Artists:  A B C D E F G H I J K L M N O P Q R S T U V W X Y Z # 

The Way I Feel Tabs (ver.2)

12 Stones Tabs
 Rating:
4/5 (4 votes)
The Way I Feel lessons Tabs too difficult? Try these video lessons and learn fast
                Tuning: Dropped C (CGCFAD)

This is the best solo I could come up with. I can't figure out the last measure or 2 but this is a lot of it.

D  :-----------------|---------------------|----------------------|
A  :-----------------|---------------------|----------------------|
F  :-----------------|---------9-10-12-10-9|-10-p9----------------|
C  :-12--------------|---10-12-------------|-------10---------5-h7|
G  :-----------------|---------------------|----------------------|
C  :-----------------|---------------------|----------------------|

D  :---------------------|---------------------|-------------------------|
A  :---------------------|---------------------|-------------------------|
F  :-----------------10-9|---------------------|------------17---17----17|
C  :-s10---10-7-10-7-----|---------10-h12-s15--|-10-s15-s19---------19---|
G  :---------------------|---------------------|-------------------------|
C  :---------------------|---------------------|-------------------------|

D  :----------------------|----------------------------|
A  :--------------------17|-18-20-18-17-18-p17----17---|
F  :---17----17---17-19---|--------------------17----17|
C  :------19--------------|----------------------------|
G  :----------------------|----------------------------|
C  :----------------------|----------------------------|

D  :-------------------|----------------------|-------------------|
A  :-------------------|----------------------|-------------------|
F  :-19-------19-----19|---19---19-19-19-19-19|-19-------19-----19|
C  :-------------------|----------------------|-------------------|
G  :-------------------|----------------------|-------------------|
C  :-------------------|----------------------|-------------------|

D  :--------------------------------------|-------------------|
A  :--------------------------------------|-------------------|
F  :-*-19-19-h22-p19-19-h22-p19-19-h22-p19|-19-------19-----19|
C  :--------------------------------------|-------------------|
G  :--------------------------------------|-------------------|
C  :--------------------------------------|-------------------|

D  :------------------------------|--------------------------------|
A  :------------------------------|--------------------------------|
F  :-*-19-19-h22-p19-19-b24-r--b24|-r22---22-p19-p17-h19-19---19-19|
C  :------------------------------|--------------------------------|
G  :------------------------------|--------------------------------|
C  :------------------------------|--------------------------------|

D  :-----------------------------|-------------------|------------------|
A  :-----------------------------|----------------b22|-------------18-21|
F  :---19---19-19-p17----17------|-------------------|------------------|
C  :------------------19----19-17|-------------------|------------------|
G  :-----------------------------|-17-------*--------|------------------|
C  :-----------------------------|-------------------|------------------|

D  :------------------------------------|---------------------------|
A  :-20-p18-p17-h18--b22---20-20-p18-p17|-20-18-17-18-20-18-18-17-15|
F  :------------------------------------|---------------------------|
C  :------------------------------------|---------------------------|
G  :------------------------------------|---------------------------|
C  :------------------------------------|---------------------------|

D  :-----------15---------|
A  :-15---18------18-15-18|
F  :----------------------|
C  :----------------------|
G  :----------------------|
C  :----------------------|
            
Submit corrections

comments powered by Disqus
↑ Back to top | 12 Stones Tabs for The Way I Feel. Lyrics for acoustic guitar and electric guitar. Tablatures and chords are parodies/interpretations of the original songs. You may use it for private study, scholarship, research or language learning purposes only