» » »

12 Stones, The Way I Feel Tabs (ver.3)

Artists:  A B C D E F G H I J K L M N O P Q R S T U V W X Y Z # 

The Way I Feel Tabs (ver.3)

12 Stones Tabs
 Rating:
4/5 (4 votes)
The Way I Feel lessons Tabs too difficult? Try these video lessons and learn fast
1
                
Tuning: Drop C

Verse/ Opening:
D|----------------------------------------------------------------------------|
A|----------------------------------------------------------------------------|
F|-----------------------------------------------------------------------10---|
C|-----10-----10-------10-----10---10--------10-----10-------10-----10--------|
G|---8----8----------8----8----------------8----8----------8----8-------------|
D|-0--------0----0-8--------8----8-------0--------0----0-8--------8----8------|

Chorus:
D|-------------------------------------------------------------------------------------------|
A|-------------------------------------------------------------------------------------------|
F|-------------------------------------------------------------------------------------------|
C|-0-000--8-8-88-8-7--3-33-0-H5-5-0-H3-H5-3-0-000--8-8-88-00--10-10-555/10-10-10-10-10-10-10-|
G|-0-000--8-8-88-8-7--3-33-0-H5-5-0-H3-H5-3-0-000--8-8-88-00--10-10-555/10-10-10-10-10-10-10-|
C|-0-000--8-8-88-8-7--3-33-0-H5-5-0-H3-H5-3-0-000--8-8-88-00--10-10-555/10-10-10-10-10-10-10-|

Layout:
Opening 8x
Chorus 2x
Verse 6x
Chorus 2x
Solo: I'm not tabbing this...ugh...BTW: all of the other tabs of the solo are dead wrong, so do it by ear
Chorus 4x

Key:
H = Hammer Down
/ = Slide up to
            
Submit corrections

comments powered by Disqus
↑ Back to top | 12 Stones Tabs for The Way I Feel. Lyrics for acoustic guitar and electric guitar. 1 Tablatures and chords are parodies/interpretations of the original songs. You may use it for private study, scholarship, research or language learning purposes only