» » »

In My Head Tabs (ver.2)

Artists:  A B C D E F G H I J K L M N O P Q R S T U V W X Y Z # 

In My Head Tabs (ver.2)

12 Stones
Rating:
0/5 (0 votes)

Hard to play? Try these video lessons and learn fast.
                In My Head


Tuning: C-G-C-F-A-D

Intro / Verse  (Clean)

| -------------------------------------------- |
| ---------------------3--------1-0---1-0----- |
| -----------2-----2h5------0h2-----2-----2-0- |
| -------3h5--------------3------------------- |
| -------------------------------------------- |
| -0-0-0-------0-0-------3-------------------- |

Continued:

| ------------------------------------------------ |
| ---------1-------------------------------------- |
| ---0---0---0-----0-2-----------3-----3-------3-- |
| -----------------------3-----3----3----3---3---- |
| -3---3-------3/7-----1---1-1--------1----1------ |
| ------------------------------------------------ |


Pre Chorus (Clean):
Strum these chords 

(These chords are the shapes and name in normal Drop D
  For the actual chord, lower the name a whole step)
Bbsus9    Dm     C5    Bbsus9

| -1------1------1------1------ |
| -1------3------1------1------ |
| -3------2------0------3------ |
| -3------0------2------3------ |
| -1------0------3------1------ |
| --------0-------------------- |


CHORUS (Distortion):

| --------------------------xx-------xx---- |
| --------------------------xx-------xx---- |
| --------------------------xx-5-5-5-xx-3-3 |
| ----------------------0---xx-5-5-5-xx-3-3 |
| ----------------------0-0-xx-3-3-3-xx-1-1 |
| -0-3-2-0-5-3-0-3-2-0--0-0-xx-------xx---- |

PM......................

Ending 1.    2.

| --------- | -------------------|
| --------- | -------------------|
| -5-5-5--- | -------------------|
| -5-5-5-3- | -------------------|
| -3-3-3-3- | -------------------|
| -------3- | -0-3-2-0-5-3-0-3-2-|

Thats all, for the solo, just mess around with a D major Penatonic Scale.
            
Hard to play? Try these video lessons and learn fast. | Correct




comments powered by Disqus
↑ Back to top | Tablatures and chords are parodies/interpretations of the original songs. You may use it for private study, scholarship, research or language learning purposes only