>
 >
In My Head

In My Head Bass Tabs

12 Stones - In My Head chords, tabs, tablatures, lyrics

Guitar lessons | Add/correct | Request | Top 50 tabs Artists:  A B C D E F G H I J K L M N O P Q R S T U V W X Y Z 0-9

In My Head Bass Tabs – 12 Stones

CD, Sheet music, Poster

Do you like In My Head? Share with your friends now
Bass TabsTabsTabs v2
Band- 12 Stones
Song- In My Head

p - pull off
h - hammer on
~ - let ring


Intro/Verse

G|--------------5-|--------------|---------------|-------------| x3
D|------5~---5h8--|--------------|---------------|-------------|
A|---3h6----------|---6h8p6~-----|---8h10-8------|---6h8-6-----|
E|---------3------|----------8---|6~--------10---|4~-------8---|
B|1-1-------------|4~----------68|-------------4-|-----------4-|


Prechorus

G|----------|----------|----------|------------------|
D|----------|----------|----------|-----6-5h65-------|
A|------6---|----------|---8---8--|---6-------6-5h65-|
E|4~------4-|----------|6~---6---6|4~---------------6|
B|----------|1~---1-1-1|----------|------------------|

G|----------|----------|----------|-----------------|
D|----------|----------|----------|-----6-----------|
A|------6---|----------|---8---8--|---6-------------|
E|4~------4-|----------|6~---6---6|4~-----4343------|
B|----------|1-11-1-1-1|----------|-----------43434-|


Chorus

G|-----------|----------------|-----------|----------------|- 
D|-----------|----------------|-----------|----------------|- 
A|-----------|---6~-----------|-----------|----------------|-
E|-------6-4~|-4----4h66-6----|-------6-4~|-4-4--4343------|-
B|1~-1~------|-------------4~-|1~-1-11----|----------43434-|-

------------|----------------|-----------|----------------| x1
------------|---6-------8----|-----------|----------------| (the last time x2)
------------|----6-----------|-----------|----------------|
--------6-4~|-4----4h66------|-------6-4~|-4-4--4343------|
-1~-1-1-----|-------------4~-|1~-1-11----|----------43434-|


Interlude

G|------------------|----------------|---------------|----------------|
D|------------------|----------------|---------------|----------------|
A|------------------|----------------|---------------|----------------|
E|---3---3-4~-44~-4-|-1-11~--3-31h3--|---3-----4~-44-|43-43-43-43-43-4|
B|1~---1------------|--------------4-|1~---1---------|--4--4--4--4--4-|

G|------------------|----------------|-----------|----------------|
D|------------------|----------------|-----------|----------------|
A|------------------|----------------|-----------|----------------|
E|---3-----4~-44-44-|-1-11-1-3-34p3--|---3-----4~|-44~--3434------|
B|1~---1------------|--------------4-|1~---1-----|----------------|





Comments


Popular 12 Stones tabs & chords
Bury Me Chords
Running Out Of Pain Chords
Way I Feel Chords
Anthem For The Underdog Tabs
Anthem For The Underdog 1 Tabs
Arms Of A Stranger Tabs
It Was You Intro Tabs
Last Song Tabs
Shadows 1 Tabs
Lie To Me Ukulele


Song lyrics



↑ Back to top | Tablatures and chords are parodies/interpretations of the original songs. You may use it for private study, scholarship, research or language learning purposes only
© 2014 AZChords.com Contact us | Privacy policy | DMCA | Add/correct tabs | Request tabs | Top 50 tabs