» » »

12 Stones, Eric's Song Tabs (ver.3)

Artists:  A B C D E F G H I J K L M N O P Q R S T U V W X Y Z # 

Eric's Song Tabs (ver.3)

12 Stones Tabs
 Rating:
4/5 (4 votes)
Eric's Song lessons Tabs too difficult? Try these video lessons and learn fast
1
                -------------------------------------------------------------------------------
                             12 Stones - Eric's song
-------------------------------------------------------------------------------
nd stuff, i have to share the truth! and unlike all the others i had a go at the solo :)



Tuning: Drop c

repeat this part however many times but put a zero on the end just before the pre 
chorus (-10--9--0)

Intro:
D|-----------------10--9-----------------10--9-------------------------------|
A|-----10-----10------------10----10-----------------------------------------|
F|---9-----9------------9------9-----9---------------------------------------|
C|---------------------------------------------------------------------------|
G|---------------------------------------------------------------------------|
C|---------------------------------------------------------------------------|

Prechorus: thats not the actual amount, its easy to figure how many times :)
|---------------------------------------------------------------------------|
|---------------------------------------------------------------------------|
|---------------------------------------------------------------------------|
|-----7----5---5---7---5---7------------------------------------------------|
|-----7----5---5---7---5---7------------------------------------------------|
|-----7----3---7---7---5---5------------------------------------------------|      pm   
  pm   pm   pm

Chorus: same as prechorus, except its not palm muted......duh
|---------------------------------------------------------------------------|
|---------------------------------------------------------------------------|
|---------------------------------------------------------------------------|
|---------------------------------------------------------------------------|
|---------------------------------------------------------------------------|
|---------------------------------------------------------------------------|
Solo: here we go( ok a fair bit is missing, but at least i had a go)
|---------------------------------------------------------------------------|
|---------------------------------------------------------------------------|
|----7b---5---5--7c--5--7/9---9-9--7-7--5h7-5---5--7------------------------|
|-------7---7---------------------------------7-----------------------------|
|---------------------------------------------------------------------------|
|---------------------------------------------------------------------------|


|---------------------------------------------------17--15--17--17----------|
|----13p15-13p15-----13p15--13p15-------15--15b^^---------------------------|
|----------------14---------------14----------------------------------------|
|---------------------------------------------------------------------------|
|---------------------------------------------------------------------------|
|---------------------------------------------------------------------------|




| /  slide up     pm = palm mute
| \  slide down   c = choke (bend a little bit real fast)
| h  hammer-on
| p  pull-off
| ~  vibrato
| +  harmonic
| x  Mute note
===============================================================================
            
Submit corrections

comments powered by Disqus
↑ Back to top | 12 Stones Tabs for Eric's Song. Lyrics for acoustic guitar and electric guitar. 1 Tablatures and chords are parodies/interpretations of the original songs. You may use it for private study, scholarship, research or language learning purposes only